Fuel

Innocent

Fuel

chords Beginner beginner

save to print version add songbook text version e-mail correct tuner
chordsukulelecavacokeyboardtabbassdrumsharmonicaflute Guitar Pro
close

there isn't a video lesson for this song

chords

Innocent

Key:  Em7 More
Innocent Key Bm7Bm7
Innocent Key Cm7Cm7
Innocent Key C#m7C#m7
Innocent Key Dm7Dm7(one step down)
Innocent Key D#m7D#m7(half step down)
Innocent Key Em7Em7(original key)
Innocent Key Fm7Fm7(half step up)
Innocent Key F#m7F#m7(one step up)
Innocent Key Gm7Gm7
Innocent Key G#m7G#m7
Innocent Key Am7Am7
Innocent Key A#m7A#m7
	  		Intro/Verse
  Em7   D7   C7
E|-0----0----0---------    
B|-8----7----5---------
G|-0----0----0---------
D|-9----7----5---------
A|-7----5----3---------
E|-0----0----0---------

Bridge
    Em
E|--0---------------|--------------------
B|--0---------------|--------------------
G|--0---------------|--------------------
D|--2---------------|--------------------
A|--2---------------|--------------------
E|--0---------------|--------------------

	Verse 1
Verse (Em7 D7 C7)
Satan, you know where I lie
Gently I go into that good night
Pre-chorus (C9 D G D)
All our lives get complicated
Search for pleasures over-rated
Chorus (C9 A C D)
Never armed our souls for what the future would hold
We were innocent, innocent
	Verse 2
Verse (Em7 D7 C7)
Angels, lend me your might
Forfeit all my lives to get just one right
Pre-chorus (C9 D G D)
All those colors longs since faded
And all our smiles are confiscated
Chorus (C9 A C D Em)
Never were we told we'd be bought and sold
We were innocent
Bridge/Solo
E|----------------------------|---------------------------------------
B|-8-----8-7---5-7--8-----8-7-|-3/10---12-10-9---7-9--10---12-10-7----
G|-----7----------------7-----|---------------------------------------
D|----------------------------|---------------------------------------
A|----------------------------|---------------------------------------
E|----------------------------|---------------------------------------
	Verse 3
Verse (Em7 D7 C7)
This prayer is for me tonight
(Something something something) still ain't got it right
Pre-chorus (C9 D G D)
All confessions not yet slated
Our next sin is contemplated
Chorus (C9 A C D C D)
Never did we know what the future would hold
That we'd be bought and sold
We were innocent, innocent
 


_______________________________________________________
Contribuição: Leonardo Paiva([email protected])
		  

Full key step upFull key step up
Half key step upHalf key step up
Half key step downHalf key step down
Full key step downFull key step down
hide glossary

See also:

chords Oasis - Live Forever chords Jethro Tull - Aqualung chords Arctic Monkeys - Crying Lightning chords Tracy Chapman - Baby Can I Hold You chords Arctic Monkeys - R U Mine? (acoustic) chords Oasis - Stand By Me
e-chords

Other versions:

chords Our Lady Peace - Innocent chords Third Day - Innocent chords Small mercies - Innocent chords Stellar Kart - Innocent chords Taylor Swift - Innocent chords Voltaire - Innocent
auto scroll beats size up size down change color hide chords simplify chords drawings columns
tab show chords e-chords YouTube Clip e-chords hide all tabs e-chords go to top tab

share