Fenix TX

home > Fenix TX

Ben (ver. 2) Tab

Fenix TX

Difficulty: nolevelnolevel

tuner correct add songbook print version text version save to e-mail
chordsukulelecavacokeyboardtabbassdrumsharmonicsflute Guitar Pro
chords

Ben (ver. 2)

  		tabbed by mike trondson 
 
Intro: 
e-----------                                           
b-----------                                         
g-----------                                      
d-2-x-2-x-2-                                          
a-2-x-2-x-2-                                          
e-0-x-0-x-0- 
Heavy Palm Mute 
 
Verse/Rest of Intro 
Guitar 1 
e--------------------------------- 
b--------------------------------- 
g------5555------7777------------- 
d-2222-5555-5555-7777------------- 
a-2222-3333-5555-5555------------- 
e-0000------3333------------------ 
Play 2x, then... 
 
Guitar2 
e-3333333333333333333333332222---- 
b--------------------------------- 
g--------------------------------- 
d--------------------------------- 
a--------------------------------- 
e--------------------------------- 
 
Play Verse 1 4x, then... 
 
Chorus 
e--------------------------------- 
b--------------------------------- 
g-5---------------7--------------- 
d-5-let ring-5----7--------------- 
a-3----------5----5--------------- 
e------------3-------------------- 
 
Play 4x, then play 2nd verse 
 
then repeat chorus again 
 
bridge:guitar 1 
e------------------- 
b------------------- 
g-99-x-99-x-9------- 
d-99-x-99-x-9------- 
a-77-x-77-x-7------- 
e-------------------  repeat several times then play along with guitar 1 
 
bridge:Guitar2 
e----------------- 
b----------------- 
g----------------- 
d-22-x-22-x-2----- 
a-22-x-22-x-2----- 
e-00-x-00-x-0----- 
 
Bridge with Vocals 
e-------------------------- 
b-------------------------- 
g-----------5---------5---- 
d-2---------5----5----5---- 
a-2---------3----5----7---- 
e-0-let ring-----3--------- 
 
Then Play Chorus one last time, play verse chords w/no words 
and then play the intro, and end on a sustained low "e" 
 

	  

Search Paypal
auto scroll beats size up size down change color hide chords drawings
tab show chords e-chords YouTube Clip e-chords hide all tabs e-chords go to top tab