Of Mice & Men

home > Of Mice & Men

Ben Threw Tab

Of Mice & Men

Difficulty: IntermediateIntermediate

by alyslima

tuner correct add songbook print version text version save to e-mail
chordsukulelecavacokeyboardtabbassdrumsharmonicsflute Guitar Pro
chords

Ben Threw

  		
Tunning: Drop C  


 Intro  
|----------------------------------------------------------------| 
|----------------------------------------------------------------| 
|----------------------------------------------------------------| 
|----------------------------------------------------------------| 
|----------------------------------------13----------------------|  (x2) 
|-000-13b-0-10-0-10-12-000-13b-0-10-0-10----000-13b-0-10-0-10-12-| 
  ...                  ...                  ... 
  
 Ending 1                 Ending 2 
|------------------------|-------------| 
|------------------------|-------------| 
|------------------------|-------------| 
|------------------------|-10~---13~---| 
|------------------------|-10~---13~---| 
|-000-0~-000-0~-13131313-|-10~---13~---| 
  ...    ... 

 Verse 1 
 (kinda guessed a little on the chords,if you know it send it to me) 
|--------------------------------------------------------------------------| 
|--------------------------------------------------------------------------| 
|--------------------------------------------------------------------------| 
|-1-0h1-4-0-1-4--1-0h1-4-------------1-0h1-4-0-1-4--000----000-------------| 
|-1-0h1-4-0-1-4--1-0h1-4-3333--------1-0h1-4-0-1-4--000----000-------------| 
|-1-0h1-4-0-1-4--1-0h1-4------4444---1-0h1-4-0-1-4--000-0~-000-0~-13131313-| 
                                                    ...    ... 

|----------------------------------------------------------------------| 
|----------------------------------------------------------------------| 
|----------------------------------------------------------------------| 
|-1-0h1-4-0-1-4--1-0h1-4-------------1-0h1-4-0-1-4---3-1-4-----4-3-1-3-| 
|-1-0h1-4-0-1-4--1-0h1-4-3333--------1-0h1-4-0-1-4---3-1-4--3--4-3-1-3-| 
|-1-0h1-4-0-1-4--1-0h1-4------4444---1-0h1-4-0-1-4---3-1-4-----4-3-1-3-| 
                                                     . . .     . . .  

 Verse 2 
|---------------------------------------------------------| 
|------------------------------------------------------5--| 
|------------------------------------------------------8--| 
|-1-0-4~---1-0-1-0-4~--0-0-0-0--1-0-4~---1-0-1-0-4~--0----| 
|-1-0-4~---1-0-1-0-4~--0-0-0-0--1-0-4~---1-0-1-0-4~--0----| 
|-1-0-4~---1-0-1-0-4~--0-0-0-0--1-0-4~---1-0-1-0-4~--0----| 
                       . . . .                       . 

|---------------------------------------------------------| 
|---------------------------------------------------------| 
|---------------------------------------------------------| 
|-1-0-4~---1-0-1-0-4~--0-0-0-0---10~--10-10---13-13-13-13-| 
|-1-0-4~---1-0-1-0-4~--0-0-0-0---10~--10-10---13-13-13-13-| 
|-1-0-4~---1-0-1-0-4~--0-0-0-0---10~--10-10---13-13-13-13-| 
                       . . . . 

|----------------------------------------------------------------| 
|----------------------------------------------------------------| 
|----------------------------------------------------------------| 
|----------------------------------------------------------------| 
|-----------------------------------------13---------------------|  (x2) 
|-000-13b-0-10-0-10-12-000-13b-0-10-0-10----000-13b-0-10-0-10-12-| 
  ...                  ...                  ... 

 Ending 1                 Ending 2 
|------------------------|----------| 
|------------------------|----------| 
|------------------------|----------| 
|------------------------|-10~------| 
|------------------------|-10~------| 
|-000-0~-000-0~-13131313-|-10~--1b~-| 
  ...    ...        

 Verse 3 (breakdown)         
|--------------------------------------------------------------------------| 
|--------------------------------------------------------------------------| 
|--------------------------------------------------------------------------| 
|-000-0~-000-0~-000-0--000-0~-000-0~-000-0-------------000-0~-000-0~-000-0-| 
|-000-0~-000-0~-000-0--000-0~-000-0~-000-0-------------000-0~-000-0~-000-0-| 
|-000-0~-000-0~-000-0--000-0~-000-0~-000-0--0-1b-1b-1b-000-0~-000-0~-000-0-| 
  ...    ...    ...    ...    ...    ...    .          ...    ...    ... 

|--------------------------| 
|--------------------------| 
|--------------------------| 
|-10~--10-10---13-13-13-13-| 
|-10~--10-10---13-13-13-13-| 
|-10~--10-10---13-13-13-13-| 

 Verse 4 
|--------------------------------------------------------------------------| 
|--------------------------------------------------------------------------| 
|--------------------------------------------------------------------------| 
|-1-0h1-4-0-1-4--1-0h1-4-------------1-0h1-4-0-1-4--000----000-------------| 
|-1-0h1-4-0-1-4--1-0h1-4-3333--------1-0h1-4-0-1-4--000----000-------------| 
|-1-0h1-4-0-1-4--1-0h1-4------4444---1-0h1-4-0-1-4--000-0~-000-0~-13131313-| 
                                                    ...    ... 
|---------------------------------------------------------------------| 
|---------------------------------------------------------------------| 
|---------------------------------------------------------------------| 
|-1-0h1-4-0-1-4--1-0h1-4-------------1-0h1-4-0-1-4--000----000----10~-| 
|-1-0h1-4-0-1-4--1-0h1-4-3333--------1-0h1-4-0-1-4--000----000----8~--| 
|-1-0h1-4-0-1-4--1-0h1-4------4444---1-0h1-4-0-1-4--000-0~-000-0~-8~--| 
                                                    ...    ...  

 Slow Part 
|-------------------------------------------------------------------------| 
|-------------------------------------------------------------------------| 
|-------9~-9-------------9~-9--------------9~-9---------------------------| 
|-0-0-0-7~-7-(x8)--0-0-0-7~-7-(x8)-0--0--0-7~-7-(x8)--8~--10-10-10-10-----| 
|-0-0-0-8~-8-------0-0-0-8~-8------0--0--0-8~-8-------8~--10-10-10-10-----| 
|-0-0-0------------0-0-0-----------0--0--0------------8~--10-10-10-10-12/-| 
  . . .            . . .           .  .  .              

|----------------------------------------------------------------------| 
|----------------------------------------------------------------------| 
|----------------------------------------------------------------------| 
|-0~--8~--7~--0~--8~--7~---0-------8------7------0-------8------7------| 
|-0~--8~--7~--0~--8~--7~---0-------8------7------0-------8------7------| 
|-0~--8~--7~--0~--8~--7~---0-(x16)-8-(x8)-7-(x8)-0-(x16)-8-(x8)-7-(x8)-| 
                           .       .      .      .       .      . 

|--------------------------------------------------------------------------| 
|--------------------------------------------------------------------------| 
|--------------------------------------------------------------------------| 
|-000000000000000088888888777777770000000000000000888888881010101010101010-| 
|-000000000000000088888888777777770000000000000000888888881010101010101010-| 
|-000000000000000088888888777777770000000000000000888888881010101010101010-| 

 Pre-Breakdown 
  
 Guitar 1 
|--------------------------------------| 
|--------------------------------------| 
|--------------------------------------| 
|--------------------------------------| 
|--------------------------------------| 
|-000-13b-13b-------------000-13b-13b--| 
  ...                     ... 
  
 Guitar 2 
|--------------------------------------| 
|--------------------------------------| 
|--------------------------------------| 
|--------------------------------------| 
|--------------------------------------| 
|-------------000-13b-13b-000-13b-13b--| 
              ...         ... 
  
 Both 
|----------------------------------------------| 
|----------------------------------------------| 
|----------------------------------------------| 
|-000---------000---------000---------00000000-| 
|-000---------000---------000---------00000000-| 
|-000-13b-13b-000-13b-13b-000-13b-13b-00000000-| 
  ...         ...         ...         ........ 

|-----------------------------------------------| 
|-----------------------------------------------| 
|-----------------------------------------------| 
|-000---------000---------000---------0000-0000-| 
|-000---------000---------000---------0000-0000-| 
|-000-13b-13b-000-13b-13b-000-13b-13b-0000-0000-| 
  ...         ...         ...         .... .... 

|---------------------------------------------------| 
|---------------------------------------------------| 
|---------------------------------------------------| 
|-0--0000-0000--00000000-10~-10-10--13-13-13-13-----| 
|-0--0000-0000--00000000-10~-10-10--13-13-13-13-----| 
|-0--0000-0000--00000000-10~-10-10--13-13-13-13-12/-| 
  .  .... ....  ........ 

 Outro 
|-----------------------------------------------------------------| 
|-----------------------------------------------------------------| 
|-----------------------------------------------------------------| 
|-----------------------------------------------------------------| 
|-----------------------------------------13----------------------|  (x2) 
|-000-13b-0-10-0-10-12-000-13b-0-10-0-10----000-13b-0-10-0-10-12--| 
  ...                  ...                  ...    

 Ending 1                 Ending 2 
|------------------------|-----------------------| 
|------------------------|-----------------------| 
|------------------------|-----------------------| 
|------------------------|-1111-1111-11----------| 
|------------------------|-1111-1111-11----------| 1's not 11's 
|-000-0~-000-0~-13131313-|-1111-1111-11-(x3)-----|  
  ...    ...               .... .... .. 

|---| 
|---| 
|---| 
|-0-| 
|-0-| 
|-0-| 
  
	  

Search Paypal
auto scroll beats size up size down change color hide chords drawings
tab show chords e-chords YouTube Clip e-chords hide all tabs e-chords go to top tab