Behemoth

home > Behemoth

Ben Sahar Tab

Behemoth

Difficulty: nolevelnolevel

by brunblazkowski

tuner correct add songbook print version text version save to e-mail
chordsukulelecavacokeyboardtabbassdrumsharmonicsflute Guitar Pro
chords

Ben Sahar

  		
Afinação:  C# F# B E G# C# 

                                  



-------------------------------------------------------------------------------------------------------------| 
-------------------------------------------------------------------------------------------------------------| 
-----------LET RING------------------------------------------------------------------------------------------| 
---2~~~~~~~~~~~~~~~~~~~~~~------------3~~~~~~~~~~~~~~~~~~~~~~----2~~~~~~~~~~~~-------------3~~~~~~~~~~~~-----| 
---2~~~~~~~~~~~~~~~~~~~~~~------------3~~~~~~~~~~~~~~~~~~~~~~----2~~~~~~~~~~~~-------------3~~~~~~~~~~~~-----| 
---0~~~~~~~~~~~~~~~~~~~~~~---------------------------------------0~~~~~~~~~~~~-------------------------------| 



-------------------------------------------------------------------------------------------------------------| 
-------------------------------------------------------------------------------------------------------------| 
-------------------------------------------------------------------------------------------------------------| 
-------------------------------------------------------------------------------------------------------------| 
---2222222222222222222222222222222222222222222222----333333333333333333333333333333333333333333333-----------| 
---0000000000000000000000000000000000000000000000----000000000000000000000000000000000000000000000-----------| 

-------------------------------------------------------------------------------------------------------------| 
-------------------------------------------------------------------------------------------------------------| 
-------------------------------------------------------------------------------------------------------------| 
-------------------------------------------------------------------------------------------------------------| 
---2222222222222222222222222222222222222222222222----333333333333333333333333333333333333333333333-----------| 
---0000000000000000000000000000000000000000000000----000000000000000000000000000000000000000000000-----------| 



---------------------------------------------------------------------------| 
---------------------------------------------------------------------------| 
---------------------------------------------------------------------------| 
---------------------------------------------------------------------------| 
---2------2------2------2-------3------3------3------3---------------------| 
---0-000--0-000--0-000--0-000---0-000--0-000--0-000--0-000-----------------| 
     ...    ...    ...    ...     ...    ...    ...    ... 

---------------------------------------------------------------------------| 
---------------------------------------------------------------------------| 
---------------------------------------------------------------------------| 
---------------------------------------------------------------------------| 
---2------2------2------2-------3------3------3------3---------------------| 
---0-000--0-000--0-000--0-000---0-000--0-000--0-000--0-000-----------------| 
     ...    ...    ...    ...     ...    ...    ...    ... 



----------0~----------------------------0~---------------------------------| 
----------0~----------------------------0~---------------------------------| 
---------------------------------------------------------------------------| 
---------------------------------------------------------------------------| 
---2-3-2------2------------------2-3-2------2------------------------------| 
---0-1-0------0--444-111-00------0-1-0------0--444-111-00------------------| 

----------0~----------------------------0~---------------------------------| 
----------0~----------------------------0~---------------------------------| 
---------------------------------------------------------------------------| 
---------------------------------------------------------------------------| 
---2-3-2------2------------------2-3-2------2------------------------------| 
---0-1-0------0--444-111-00------0-1-0------0--444-111-00------------------| 




---------------------------------------------------------------------------| 
---------------------------------------------------------------------------| 
---------------------------------------------------------------------------| 
---13/10---10---10/9---9--9~----------7/9---9---9/10---10---9~-------------| 
---11/-8----8----8/7---7--7~----------5/7---7---7/-8----8---7~-------------| 
------------------------------0000--------------------------------0000-----| 
                              ....                                .... 
---------------------------------------------------------------------------| 
---------------------------------------------------------------------------| 
---------------------------------------------------------------------------| 
---13/10---10---10/9---9--9~----------7/6---6---6/3---3--2-----------------| 
---11/-8----8----8/7---7--7~----------x/x---x---x/x---x--x---222-----------| 
------------------------------0000----5/4---4---4/1---1--0---000-----------| 
                              ....                           ... 

---------------------------------------------------------------------------| 
---------------------------------------------------------------------------| 
---------------------------------------------------------------------------| 
---13/10---10---10/9---9--9~----------7/9---9---9/10---10---9~-------------| 
---11/-8----8----8/7---7--7~----------5/7---7---7/-8----8---7~-------------| 
------------------------------0000--------------------------------0000-----| 
                              ....                                .... 

---------------------------------------------------------------------------| 
---------------------------------------------------------------------------| 
---------------------------------------------------------------------------| 
---13/10---10---10/9---9--9~----------7/6---6---6/3---3--2-----------------| 
---11/-8----8----8/7---7--7~----------x/x---x---x/x---x--x---222-----------| 
------------------------------0000----5/4---4---4/1---1--0---000-----------| 
                              ....                           ... 



----------------------------------------------------------------------------------| 
----------------------------------------------------------------------------------| 
----------------------------------------------------------------------------------| 
----------------------------------------------------------------------------------| 
---7777777-------------------------8888877777777---------------8888777777777777---| 
-----------7777777---888877775555----------------77777--444444--------------------| 

CONTINUACION 
-----------------------------------------------------------------------------------| 
-----------------------------------------------------------------------------------| 
-----------------------------------------------------------------------------------| 
-----------------------------------------------------------------------------------| 
-----------------------------------------------------------------------------------| 
---777777--8888777755554444---1111--00000000000000000---5444110--------------------| 




-------------------------------------------------------------------------------------------| 
-------------------------------------------------------------------------------------------| 
-----------------0-------0-------------(2)--------------------0--------0-------------(2)---| 
---2---2-------5-------5-----7-------3----------2---2-------5--------5-----7-------3-------| 
---2---2-----3-------3-------x-----3------------2---2-----3--------3-------x-----3---------| 
---0---0---0-------0---------5---1--------------0---0---0--------0---------5---1-----------| 




--------------------------------------------------------------------------------------| 
--------------------------------------------------------------------------------------| 
---------------------------------------------------0--------0-------------(2)---------| 
--------99--------999--------99--------999-------5--------5-----7-------3-------------| 
--------77--------777--------77--------777-----3--------3-------x-----3---------------| 
---0000------0000-------0000------0000-------0--------0---------5---1-----------------| 
   ....      ....       ....      ....               

--------------------------------------------------------------------------------------| 
--------------------------------------------------------------------------------------| 
---------------------------------------------------0--------0-------------(2)---------| 
--------99--------999--------99--------999-------5--------5-----7-------3-------------| 
--------77--------777--------77--------777-----3--------3-------x-----3---------------| 
---0000------0000-------0000------0000-------0--------0---------5---1-----------------| 
   ....      ....       ....      .... 



----------0~----------------------------0~---------------------------------| 
----------0~----------------------------0~---------------------------------| 
---------------------------------------------------------------------------| 
---------------------------------------------------------------------------| 
---2-3-2------2------------------2-3-2------2------------------------------| 
---0-1-0------0--444-111-00------0-1-0------0--444-111-00------------------| 

----------0~----------------------------0~---------------------------------| 
----------0~----------------------------0~---------------------------------| 
---------------------------------------------------------------------------| 
---------------------------------------------------------------------------| 
---2-3-2------2------------------2-3-2------2------------------------------| 
---0-1-0------0--444-111-00------0-1-0------0--444-111-00------------------| 




---------------------------------------------------------------------------| 
---------------------------------------------------------------------------| 
---------------------------------------------------------------------------| 
---13/10---10---10/9---9--9~----------7/9---9---9/10---10---9~-------------| 
---11/-8----8----8/7---7--7~----------5/7---7---7/-8----8---7~-------------| 
------------------------------0000--------------------------------0000-----| 
                              ....                                .... 

---------------------------------------------------------------------------| 
---------------------------------------------------------------------------| 
---------------------------------------------------------------------------| 
---13/10---10---10/9---9--9~----------7/6---6---6/3---3--2-----------------| 
---11/-8----8----8/7---7--7~----------x/x---x---x/x---x--x---222-----------| 
------------------------------0000----5/4---4---4/1---1--0---000-----------| 
                              ....                           ... 


---------------------------------------------------------------------------| 
---------------------------------------------------------------------------| 
---------------------------------------------------------------------------| 
---13/10---10---10/9---9--9~----------7/9---9---9/10---10---9~-------------| 
---11/-8----8----8/7---7--7~----------5/7---7---7/-8----8---7~-------------| 
------------------------------0000--------------------------------0000-----| 
                              ....                                .... 

---------------------------------------------------------------------------| 
---------------------------------------------------------------------------| 
---------------------------------------------------------------------------| 
---13/10---10---10/9---9--9~----------7/6---6---6/3---3--2-----------------| 
---11/-8----8----8/7---7--7~----------x/x---x---x/x---x--x---222-----------| 
------------------------------0000----5/4---4---4/1---1--0---000-----------| 
                              ....                           ... 



----------------------------------------------------------------------------------| 
----------------------------------------------------------------------------------| 
----------------------------------------------------------------------------------| 
----------------------------------------------------------------------------------| 
---7777777-------------------------8888877777777---------------8888777777777777---| 
-----------7777777---888877775555----------------77777--444444--------------------| 


CONTINUACION 
-----------------------------------------------------------------------------------| 
-----------------------------------------------------------------------------------| 
-----------------------------------------------------------------------------------| 
-----------------------------------------------------------------------------------| 
-----------------------------------------------------------------------------------| 
---777777--8888777755554444---1111--00000000000000000---5444110--------------------| 



------------------------------------------------------------------| 
------------------------------------------------------------------| 
------------5--7---5/7--5--4---------------5--7------------------| 
---2---2----x--x---x/x--x--x---7---2--2----x--x------------------| 
---2---2----3--5---3/5--3--2---x---2--2----3--5---10-9-7---------| 
---0---0-----------------------5---0--0------------8-7-5---------| 
                                                    . . . 


---------------------------------------------------------------------------| 
---------------------------------------------------------------------------| 
---------------------------------------------------------------------------| 
---------------------------------------------------------------------------| 
---2------2------2------2-------3------3------3------3---------------------| 
---0-000--0-000--0-000--0-000---0-000--0-000--0-000--0-000-----------------| 
     ...    ...    ...    ...     ...    ...    ...    ... 

---------------------------------------------------------------------------| 
---------------------------------------------------------------------------| 
---------------------------------------------------------------------------| 
---------------------------------------------------------------------------| 
---2------2------2------2-------3------3------3------3---------------------| 
---0-000--0-000--0-000--0-000---0-000--0-000--0-000--0-000-----------------| 
     ...    ...    ...    ...     ...    ...    ...    ... 



SOLO  lml   (LOS PUNTOS SIGNIFICA QUE SE SIGUE TOCANDO ESA NOTA) 
---------------------------------------------------------------------------| 
-----------------------------------------12121212121212121212....----------| 
---444444444444....---999999999999....-------------------------------------| 
---------------------------------------------------------------------------| 
---------------------------------------------------------------------------| 
---------------------------------------------------------------------------| 

----------------------------------------------------------------------------------------| 
---1010-1212-----13131313131313131313..............-------------------------------------| 
---------------------------------------------------121212121212....--111111111111.....--| 
----------------------------------------------------------------------------------------| 
----------------------------------------------------------------------------------------| 
----------------------------------------------------------------------------------------| 


--------------------------------------------------------------------------------------------------------------| 
--------------------------------------------------------------------------------------------------------------| 
-----------------------99999999......--77777777-9999999-------------------------------------------------------| 
--------------9999999------------------------------------1010101010101010.....--------------------------------| 
---777777777------------------------------------------------------------------101010101010-99999999........---| 
--------------------------------------------------------------------------------------------------------------| 

--------------------------------------------------------------------------------------------------------------| 
---/////121212121212--131313131313----161616161616----101010101010.....----1313131313131313--1212121212121212-| 
--------------------------------------------------------------------------------------------------------------| 
--------------------------------------------------------------------------------------------------------------| 
--------------------------------------------------------------------------------------------------------------| 
--------------------------------------------------------------------------------------------------------------| 

-------------16-----------------------16----------------------| 
-------161718--1817-------------161718--1817------------------| 
---1617------------1716-----1617------------1716--------------| 
-----------------------1819---------------------1819----------| 
--------------------------------------------------------------| 
--------------------------------------------------------------| 

-------------16-----------------------16--------------------------| 
-------161718--1817-------------161718--1817----------------------| 
---1617------------1716-----1617------------1716------16~~--------| 
-----------------------1819---------------------1819--------------| 
------------------------------------------------------------------| 
------------------------------------------------------------------| 



---------------------------------------------------------------------------| 
---------------------------------------------------------------------------| 
---------------------------------------------------------------------------| 
---7--5---4---7--5---4---7--5---4----------------2~------------------------| 
---5--3---2---5--3---2---5--3---2--5-----3-------2~------------------------| 
-----------------------------------3-333-1-333---0~------------------------| 

---------------------------------| 
---------------------------------| 
---------------------------------| 
---2~~~~~~~~~~~~~~~~~~~~~~~~-----| 
---2~~~~~~~~~~~~~~~~~~~~~~~~-----| 
---0~~~~~~~~~~~~~~~~~~~~~~~~-----| 

---------------------------------| 
---------------------------------| 
---------------------------------| 
---2~~~~~~~~~~~~~~~~~~~~~~~~-----| 
---2~~~~~~~~~~~~~~~~~~~~~~~~-----| 
---0~~~~~~~~~~~~~~~~~~~~~~~~-----| 

---------------------------------| 
---------------------------------| 
---------------------------------| 
---2~~~~~~~~~~~~~~~~~~~~~~~~-----| 
---2~~~~~~~~~~~~~~~~~~~~~~~~-----| 
---0~~~~~~~~~~~~~~~~~~~~~~~~-----| 

 
	  

Full key step upFull key step up
Half key step upHalf key step up
Half key step downHalf key step down
Full key step downFull key step down
Search Paypal
auto scroll beats size up size down change color hide chords drawings
tab show chords e-chords YouTube Clip e-chords hide all tabs e-chords go to top tab