Felt

Sunlight Bathed The Golden Glow

Felt

tabs

by  CARLLUZ

save to print version add songbook text version e-mail correct tuner
chordsukulelecavacokeyboardtabbassdrumsharmonicaflute Guitar Pro
close

there isn't a video lesson for this song

chords

Sunlight Bathed The Golden Glow

	  		


Intro: 
Guitar I (Maurie Deebank) 
e|-------------------------10----------------------------------------9----------------------------| 
B|-------------------10----------10----------------------------10----------10---------------------| 
G|-------------11----------------------11----------------9-----------------------9-----------9----| 
D|-12----------------------------------------11----------------------------------------11---------| 
A|------------------------------------------------------------------------------------------------| 
E|------------------------------------------------------------------------------------------------| 
+ 
e|-------------------------12----------------14----------------------12---------------------------| 
B|-------------------12----------12----------------------12----------------------12---------------| 
G|-------------12----------------------12----------------------12----------------------12---------| 
D|-14----------------------------------------------------------------------------------------14---| 
A|------------------------------------------------------------------------------------------------| 
E|------------------------------------------------------------------------------------------------| 



LEAD I: 
Guitar II (Lawrence) 
e|-5-----3-----2--------3-----3--2--------------------------------------2-----2-------------------| 
B|-------------------------------------3-----0-h3--3-----3-----3-----3-----------3-----0-----3----| 
G|------------------------------------------------------------------------------------------------| 
D|------------------------------------------------------------------------------------------------| 
A|------------------------------------------------------------------------------------------------| 
E|------------------------------------------------------------------------------------------------| 
+ 
e|-5-----3-----2--------3-----3--2--------------------------------------3-----3--2----------------| 
B|-------------------------------------3-----0-h3--3-----3-----3-----3-----------------3-----0----| 
G|------------------------------------------------------------------------------------------------| 
D|------------------------------------------------------------------------------------------------| 
A|------------------------------------------------------------------------------------------------| 
E|------------------------------------------------------------------------------------------------| 
+ 
e|------------------------------------------------------------------------------------------------| 
B|-3----------------------------------------------------------------------------------------------| 
G|------------------------------------------------------------------------------------------------| 
D|------------------------------------------------------------------------------------------------| 
A|------------------------------------------------------------------------------------------------| 
E|------------------------------------------------------------------------------------------------| 



Verse: 
Guitar I (Maurie Deebank) 
e|-------------------------10----------------------------------------9----------------------------| 
B|-------------------10----------10----------------------------10----------10---------------------| 
G|-------------11----------------------11----------------9-----------------------9-----------9----| 
D|-12----------------------------------------11----------------------------------------11---------| 
A|------------------------------------------------------------------------------------------------| 
E|------------------------------------------------------------------------------------------------| 
+ 
e|-------------------------12----------------14----------------------12---------------------------| 
B|-------------------12----------12----------------------12----------------------12---------------| 
G|-------------12----------------------12----------------------12----------------------12---------| 
D|-14----------------------------------------------------------------------------------------14---| 
A|------------------------------------------------------------------------------------------------| 
E|------------------------------------------------------------------------------------------------| 



Chorus: 
Guitar I 
e|-------------------13----------------13----------15----------------13----------------13---------| 
B|-------------13----------13----------------13----------13----------------13----------------13---| 
G|-------14----------------------14----------------------------14----------------14---------------| 
D|-15---------------------------------------------------------------------------------------------| 
A|------------------------------------------------------------------------------------------------| 
E|------------------------------------------------------------------------------------------------| 
+ 
e|-------------------10----------------10----------12----------------10----------------10---------| 
B|-------------10----------10----------------10----------10----------------10----------------10---| 
G|-------11----------------------11----------------------------11----------------11---------------| 
D|-12---------------------------------------------------------------------------------------------| 
A|------------------------------------------------------------------------------------------------| 
E|------------------------------------------------------------------------------------------------| 
+ 
e|-------------------13----------------13----------15----------------13----------------15---------| 
B|-------------13----------13----------------13----------13----------------13----------------13---| 
G|-------14----------------------14----------------------------14----------------14---------------| 
D|-15---------------------------------------------------------------------------------------------| 
A|------------------------------------------------------------------------------------------------| 
E|------------------------------------------------------------------------------------------------| 
+ 
e|-------------------10----------------10----------12----------------10----------------10---------| 
B|-------------10----------10----------------10----------10----------------10----------------10---| 
G|-------11----------------------11----------------------------11----------------11---------------| 
D|-12---------------------------------------------------------------------------------------------| 
A|------------------------------------------------------------------------------------------------| 
E|------------------------------------------------------------------------------------------------| 
+ 
e|-------------------5-----------------5-----------7-----------------5-----------------5----------| 
B|-------------5-----------5-----------------5-----------5-----------------5-----------------5----| 
G|-------5-----------------------5-----------------------------5-----------------5----------------| 
D|-7----------------------------------------------------------------------------------------------| 
A|------------------------------------------------------------------------------------------------| 
E|------------------------------------------------------------------------------------------------| 
+ 
e|-------------------5-----------------8-----------7-----------------5-----------------5----------| 
B|-------------6-----------6-----------------6-----------6-----------------6-----------------6----| 
G|-------5-----------------------5-----------------------------5-----------------5----------------| 
D|-7----------------------------------------------------------------------------------------------| 
A|------------------------------------------------------------------------------------------------| 
E|------------------------------------------------------------------------------------------------| 
+ 
e|-------------------5-----------------5-----------7-----------------5-----------------7----------| 
B|-------------5-----------5-----------------5-----------5-----------------5-----------------5----| 
G|-------5-----------------------5-----------------------------5-----------------5----------------| 
D|-7----------------------------------------------------------------------------------------------| 
A|------------------------------------------------------------------------------------------------| 
E|------------------------------------------------------------------------------------------------| 
+ 
e|-------------------5-----------------8-----------7-----------------5-----------------5----------| 
B|-------------6-----------6-----------------6-----------6-----------------6-----------------6----| 
G|-------5-----------------------5-----------------------------5-----------------5----------------| 
D|-7----------------------------------------------------------------------------------------------| 
A|------------------------------------------------------------------------------------------------| 
E|------------------------------------------------------------------------------------------------| 



LEAD II: 
Guitar II 
e|-3-----------2--------0-----3--------------------3-----------2--------5-----5--3-----2----------| 
B|-------------------3-----------------------------------------------3-----------------------3----| 
G|------------------------------------------------------------------------------------------------| 
D|------------------------------------------------------------------------------------------------| 
A|------------------------------------------------------------------------------------------------| 
E|------------------------------------------------------------------------------------------------| 
+ 
e|-3-----------2--------0-----3--------------------3-----------2--------5-----5--3--3--2--2-------| 
B|-------------------3-----------------------------------------------3-----------------------3----| 
G|------------------------------------------------------------------------------------------------| 
D|------------------------------------------------------------------------------------------------| 
A|------------------------------------------------------------------------------------------------| 
E|------------------------------------------------------------------------------------------------| 
+ 
e|-2-----------0--------0-----2--------------------2-----------0--------0-----0-------------------| 
B|-------------------3-----------------------------------------------3-----------3-----2-----3----| 
G|------------------------------------------------------------------------------------------------| 
D|------------------------------------------------------------------------------------------------| 
A|------------------------------------------------------------------------------------------------| 
E|------------------------------------------------------------------------------------------------| 
+ 
e|-2-----------0--------5-----2--------------------2-----------0--------5-----5--3--3--2--2-------| 
B|-------------------3-----------------------------------------------3-----------------------3--3-| 
G|------------------------------------------------------------------------------------------------| 
D|------------------------------------------------------------------------------------------------| 
A|------------------------------------------------------------------------------------------------| 
E|------------------------------------------------------------------------------------------------| 
+ 
e|------------------------------------------------------------------------------------------------| 
B|-3----------------------------------------------------------------------------------------------| 
G|------------------------------------------------------------------------------------------------| 
D|------------------------------------------------------------------------------------------------| 
A|------------------------------------------------------------------------------------------------| 
E|------------------------------------------------------------------------------------------------| 



LEAD III: 
Guitar II 
e|-------------------------------5-----3-\2--------------------------------------5-----3-\2-------| 
B|-------------------------------------------3--3--------------------------------------------3--3-| 
G|------------------------------------------------------------------------------------------------| 
D|------------------------------------------------------------------------------------------------| 
A|------------------------------------------------------------------------------------------------| 
E|------------------------------------------------------------------------------------------------| 
+ 
e|-------------------------------5-----3-\2--------------------------------------------3-\2-------| 
B|-------------------------------------------3--0--3-----0-----3-----0--3-----0--3--0--------3--0-| 
G|------------------------------------------------------------------------------------------------| 
D|------------------------------------------------------------------------------------------------| 
A|------------------------------------------------------------------------------------------------| 
E|------------------------------------------------------------------------------------------------| 
+ 
e|------------------------------------------------------------------------------------------------| 
B|-3----------------------------------------------------------------------------------------------| 
G|------------------------------------------------------------------------------------------------| 
D|------------------------------------------------------------------------------------------------| 
A|------------------------------------------------------------------------------------------------| 
E|------------------------------------------------------------------------------------------------| 



SONG STRUCTURE: 

Guitar I 


Guitar II 



That's it. Please leave comments or suggestions, corrections, requests, etc. 
Cheers! 
-Bennyshambles78- 
		  

See also:

tabs Hudson Taylor - Hideaway tabs The Lumineers - Aint Nobodys Problem tabs The Civil Wars - Billie Jean (cover) tabs Felt - Red Indians tabs Roo Panes - I'll Move Mountains tabs The Shouting Matches - I Had A Real Good Lover
e-chords

Other versions:

tabs Felt - Sunlight Bathed The Golden Glow
auto scroll beats size up size down change color hide chords drawings
tab show chords e-chords YouTube Clip e-chords hide all tabs e-chords go to top tab

share