Lewis Watson

Deep The Water

Lewis Watson

tabs

by  DEIVCAVALCANTI

save to print version add songbook text version e-mail correct tuner
chordsukulelecavacokeyboardtabbassdrumsharmonicaflute Guitar Pro
close

there isn't a video lesson for this song

chords

Deep The Water

	  		
Tuning: DADGAD

verse 1 

when your hair spills light on my shoulders, and your eyes wide emerald green 
     D |------------------------|--------------|----------------------|----------------| 
     A |------------------------|--------------|----------------------|----------------| 
     G |--7---------------------|--------------|-------7--------------|--6-------------| 
     D |------------------------|--------------|----------------------|----------------| 
     A |--9---------------------|-2------------|-------9--------------|--7-------------| 
     D |------------------------|-2------------|----------------------|--7-------------| 

you are the love warm when it gets colder, the silver sunset watching the sea 
D |------------------------------|------------------|-------------------|--------------| 
A |------------------------------|------------------|-------------------|--------------| 
G |----------7-------------------|------------------|--7----------------|--6-----------| 
D |------------------------------|------------------|-------------------|--------------| 
A |----------9-------------------|--2---------------|--9----------------|--7-----------| 
D |------------------------------|--2---------------|-------------------|--7-----------| 


PreChorus 

giving me gray notes sing through the windows, where do you go why do you leave 
     D |------------------------|-------------------|------------------|----------------| 
     A |------------------------|-------------------|------------------|----------------| 
     G |--7---------------------|-------------------|---7--------------|--6-------------| 
     D |------------------------|-------------------|------------------|----------------| 
     A |--9---------------------|------2------------|---9--------------|--7-------------| 
     D |------------------------|------2------------|------------------|--7-------------| 

and as the waves grow harder the days go, darling I'm folding, I'm on my knees 
D |------------------------------|------------------|-------------------|--------------| 
A |------------------------------|------------------|-------------------|--------------| 
G |----------7-------------------|------------------|--7----------------|--6-----------| 
D |------------------------------|------------------|-------------------|--------------| 
A |----------9-------------------|--2---------------|--9----------------|--7-----------| 
D |------------------------------|--2---------------|-------------------|--7-----------| 


Chorus 

you give me nothing, when there's nothing else. So deep the water, but you're hiding in the shallows 
D |------------------------------|----------------------|-----------------|-----------------------| 
A |------------------------------|----------------------|-----------------|-----------------------| 
G |----------4-------------------|-7--------------------|----6------------|-----7-----------6-----| 
D |------------------------------|----------------------|-----------------|-----------------------| 
A |----------5-------------------|-9--------------------|----7------------|-----9-----------7-----| 
D |----------5-------------------|----------------------|----7------------|-----------------7-----| 

and you come running, when you're running out. So deep the water, so deep the water and I'm left here  
D |------------------------------|----------------------|-----------------|-----------------------| 
A |------------------------------|----------------------|-----------------|-----------------------| 
G |----------4-------------------|-7--------------------|----6------------|-----7-----------6-----| 
D |------------------------------|----------------------|-----------------|-----------------------| 
A |----------5-------------------|-9--------------------|----7------------|-----9-----------7-----| 
D |----------5-------------------|----------------------|----7------------|-----------------7-----| 


Instrumental 

drowning out,   
D |--------------------|------------------|---------------|---------------| 
A |--------------------|------------------|---------------|---------------| 
G |------4-------------|----7-------------|---------------|---6-----------| 
D |--------------------|------------------|---------------|---------------| 
A |------5-----5-------|----9-------------|---9-----------|---7-----------| 
D |------5-----5-------|------------------|---9-----------|---7-----------| 


verse 3 

when your heart weighs down on my shoulders, with your eyes wide you lose me at sea   
     D |------------------------|---------------|----------------------|----------------------| 
     A |------------------------|---------------|----------------------|----------------------| 
     G |--7---------------------|---------------|-------7--------------|--------6-------------| 
     D |------------------------|---------------|----------------------|----------------------| 
     A |--9---------------------|-2-------------|-------9--------------|--------7-------------| 
     D |------------------------|-2-------------|----------------------|--------7-------------| 

and your words make a fire that smolders, you are the moon pulling tides over me 
D |------------------------------|------------------|-------------------|-----------------| 
A |------------------------------|------------------|-------------------|-----------------| 
G |----------7-------------------|------------------|--7----------------|-----6-----------| 
D |------------------------------|--2---------------|-------------------|-----------------| 
A |----------9-------------------|--2---------------|--9----------------|-----7-----------| 
D |------------------------------|------------------|-------------------|-----7-----------| 


PreChorus 

giving me gray notes sing through the windows, where do you go why do you leave 
     D |------------------------|-------------------|------------------|----------------| 
     A |------------------------|-------------------|------------------|----------------| 
     G |--7---------------------|-------------------|---7--------------|--6-------------| 
     D |------------------------|-------------------|------------------|----------------| 
     A |--9---------------------|------2------------|---9--------------|--7-------------| 
     D |------------------------|------2------------|------------------|--7-------------| 

and as the waves grow harder the days go, darling I'm folding, I'm on my knees 
D |------------------------------|------------------|-------------------|--------------| 
A |------------------------------|------------------|-------------------|--------------| 
G |----------7-------------------|------------------|--7----------------|--6-----------| 
D |------------------------------|--2---------------|-------------------|--------------| 
A |----------9-------------------|--2---------------|--9----------------|--7-----------| 
D |------------------------------|------------------|-------------------|--7-----------| 


Chorus 

you give me nothing, when there's nothing else. So deep the water, but you're hiding in the shallows 
D |------------------------------|----------------------|-----------------|-----------------------| 
A |------------------------------|----------------------|-----------------|-----------------------| 
G |----------4-------------------|-7--------------------|----6------------|-----7-----------6-----| 
D |------------------------------|----------------------|-----------------|-----------------------| 
A |----------5-------------------|-9--------------------|----7------------|-----9-----------7-----| 
D |----------5-------------------|----------------------|----7------------|-----------------7-----| 

and you come running, when you're running out. So deep the water, so deep the water and I'm left here  
D |------------------------------|----------------------|-----------------|-----------------------| 
A |------------------------------|----------------------|-----------------|-----------------------| 
G |----------4-------------------|-7--------------------|----6------------|-----------------6-----| 
D |------------------------------|----------------------|-----------------|-----------------------| 
A |----------5-------------------|-9--------------------|----7------------|-----9-----------7-----| 
D |----------5-------------------|----------------------|----7------------|-----9-----------7-----| 


Bridge 

         Losing light,      beneath the silent sky, we're losing light,      above the ocean wide, I'm 
D |----------------------|----------------------|---------------------|-----------------------| 
A |----------------------|----------------------|---------------------|-----------------------| 
G |--4-------------------|-7--------------------|--------6------------|-----7-----------6-----| 
D |----------------------|----------------------|---------------------|-----------------------| 
A |--5-------------------|-9--------------------|--------7------------|-----9-----------7-----| 
D |--5-------------------|----------------------|--------7------------|-----------------7-----| 

        losing light,       we're sinking slowly as we're losing light, my love 
D |----------------------|----------------------|---------------------|-----------------------| 
A |----------------------|----------------------|---------------------|-----------------------| 
G |--4-------------------|-7--------------------|---------------------|-----------------------| 
D |----------------------|----------------------|---------------------|-----------------------| 
A |--5-------------------|-9--------------------|--------9------------|-----4-----------------| 
D |--5-------------------|----------------------|--------9------------|-----4-----------------| 


Chorus 

you give me nothing, when there's nothing else. So deep the water, but you're hiding in the shallows 
D |------------------------------|----------------------|-----------------|-----------------------| 
A |------------------------------|----------------------|-----------------|-----------------------| 
G |----------4-------------------|-7--------------------|----6------------|-----7-----------6-----| 
D |------------------------------|----------------------|-----------------|-----------------------| 
A |----------5-------------------|-9--------------------|----7------------|-----9-----------7-----| 
D |----------5-------------------|----------------------|----7------------|-----------------7-----| 

and you come running, when you're running out. So deep the water, so deep the water and I'm left here  
D |------------------------------|----------------------|-----------------|-----------------------| 
A |------------------------------|----------------------|-----------------|-----------------------| 
G |----------4-------------------|-7--------------------|----6------------|-----7-----------6-----| 
D |------------------------------|----------------------|-----------------|-----------------------| 
A |----------5-------------------|-9--------------------|----7------------|-----9-----------7-----| 
D |----------5-------------------|----------------------|----7------------|-----9-----------7-----| 


Chorus 

drowning out, when there's nothing else. So deep the water, but you're hiding in the shallows  
D |--------------------------|----------------------|-----------------|-----------------------| 
A |--------------------------|----------------------|-----------------|-----------------------| 
G |----------4---------------|-7--------------------|----6------------|-----7-----------6-----| 
D |--------------------------|----------------------|-----------------|-----------------------| 
A |----------5---------------|-9--------------------|----7------------|-----9-----------7-----| 
D |----------5---------------|----------------------|----7------------|-----------------7-----| 

and you come running, when you're running out. So deep the water, so deep the water and I'm left here  
D |------------------------------|----------------------|-----------------|-----------------------| 
A |------------------------------|----------------------|-----------------|-----------------------| 
G |----------4-------------------|-7--------------------|----6------------|-----7-----------6-----| 
D |------------------------------|----------------------|-----------------|-----------------------| 
A |----------5-------------------|-9--------------------|----7------------|-----9-----------7-----| 
D |----------5-------------------|----------------------|----7------------|-----9-----------7-----| 


drowning out,     So deep the water.      So deep the water, so deep the water and I'm left here  
D |--------------------------|----------------------|-----------------|-----------------------| 
A |--------------------------|----------------------|-----------------|-----------------------| 
G |----------4---------------|-7--------------------|----6------------|-----7-----------6-----| 
D |--------------------------|----------------------|-----------------|-----------------------| 
A |----------5---------------|-9--------------------|----7------------|-----9-----------7-----| 
D |----------5---------------|----------------------|----7------------|-----------------7-----| 

drowning out,     So deep the water.      So deep the water, so deep the water and I'm left here  
D |--------------------------|----------------------|-----------------|-----------------------| 
A |--------------------------|----------------------|-----------------|-----------------------| 
G |----------4---------------|-7--------------------|-----------------|-----7-----------6-----| 
D |--------------------------|----------------------|-----------------|-----------------------| 
A |----------5---------------|-9--------------------|----4------------|-----9-----------7-----| 
D |----------5---------------|----------------------|----4------------|-----9-----------7-----| 

drowning out 
D |--------------------------| 
A |--------------------------| 
G |----------4---------------| 
D |--------------------------| 
A |----------5---------------| 
D |----------5---------------| 
		  

See also:

tabs Douwe Bob - Mine Again tabs The Civil Wars - My Father's Father tabs Secrets - Sleep Well Darling tabs The Neighbourhood - Baby Came Home tabs Secrets - How We Survive tabs Twenty One Pilots - March To The Sea
e-chords

Other versions:

tabs Lewis Watson - Deep The Water
auto scroll beats size up size down change color hide chords drawings
tab show chords e-chords YouTube Clip e-chords hide all tabs e-chords go to top tab

share