Felt

Something Sends Me To Sleep

Felt

tabs

by  ANDRSOUZA

save to print version add songbook text version e-mail correct tuner
chordsukulelecavacokeyboardtabbassdrumsharmonicaflute Guitar Pro
close

there isn't a video lesson for this song

chords

Something Sends Me To Sleep

	  		

Intro: 
e|-0-----0-----------0-----------0-----0-----0-----0-----0-----------0-----------0-----0-----0----| 
B|-5-----5-----------5-----------5-----5-----5-----5-----5-----------5-----------5-----5-----5----| 
G|-6-----6-----------6-----------6-----6-----6-----6-----6-----------6-----------6-----6-----6----| 
D|-7-----7-----------7-----------7-----7-----7-----7-----7-----------7-----------7-----7-----7----| 
A|------------------------------------------------------------------------------------------------| 
E|------------------------------------------------------------------------------------------------| 
+ 
e|-0-----------0-----0-----------0-----0-----0-----------0-----0-----5-----------5-----0-----0----| 
B|-3-----------3-----3-----------3-----3-----3-----------3-----3-----3-----------3-----3-----3----| 
G|-4-----------4-----4-----------4-----4-----4-----------4-----4-----4-----------4-----4-----4----| 
D|-5-----------5-----5-----------5-----5-----5-----------5-----5-----5-----------5-----5-----5----| 
A|------------------------------------------------------------------------------------------------| 
E|------------------------------------------------------------------------------------------------| 
+ 
e|-0-----------0-----------0-----0-----------0-----------0-----------0-----------0-----0-----0----| 
B|-5-----------5-----------5-----5-----------5-----------5-----------5-----------5-----5-----5----| 
G|-6-----------6-----------6-----6-----------6-----------6-----------6-----------6-----6-----6----| 
D|-7-----------7-----------7-----7-----------7-----------7-----------7-----------7-----7-----7----| 
A|------------------------------------------------------------------------------------------------| 
E|------------------------------------------------------------------------------------------------| 
+ 
e|-0-----------0-----------0-----0-----------5-----------5-----0-----5-----------5-----0----------| 
B|-3-----------3-----------3-----3-----------3-----------3-----3-----3-----------3-----3----------| 
G|-4-----------4-----------4-----4-----------4-----------4-----4-----4-----------4-----4----------| 
D|-5-----------5-----------5-----5-----------5-----------5-----5-----5-----------5-----5----------| 
A|------------------------------------------------------------------------------------------------| 
E|------------------------------------------------------------------------------------------------| 



VERSE I: 
e|-0-----------0-----------0-----0-----0-----7-----------7-----0-----7-----------7-----0-----0----| 
B|-5-----------5-----------5-----5-----5-----5-----------5-----5-----5-----------5-----5-----5----| 
G|-6-----------6-----------6-----6-----6-----6-----------6-----6-----6-----------6-----6-----6----| 
D|-7-----------7-----------7-----7-----7-----7-----------7-----7-----7-----------7-----7-----7----| 
A|------------------------------------------------------------------------------------------------| 
E|------------------------------------------------------------------------------------------------| 
+ 
e|-0-----------0-----------0-----0-----0-----5-----------5-----0-----3-----------3-----0----------| 
B|-3-----------3-----------3-----3-----3-----3-----------3-----3-----3-----------3-----3----------| 
G|-4-----------4-----------4-----4-----4-----4-----------4-----4-----4-----------4-----4----------| 
D|-5-----------5-----------5-----5-----5-----5-----------5-----5-----5-----------5-----5----------| 
A|------------------------------------------------------------------------------------------------| 
E|------------------------------------------------------------------------------------------------| 
+ 
e|-0-----------0-----------0-----0-----0-----7-----------7-----0-----7-----------7-----0-----0----| 
B|-5-----------5-----------5-----5-----5-----5-----------5-----5-----5-----------5-----5-----5----| 
G|-6-----------6-----------6-----6-----6-----6-----------6-----6-----6-----------6-----6-----6----| 
D|-7-----------7-----------7-----7-----7-----7-----------7-----7-----7-----------7-----7-----7----| 
A|------------------------------------------------------------------------------------------------| 
E|------------------------------------------------------------------------------------------------| 
+ 
e|-0-----------0-----------0-----0-----0-----5-----------5-----0-----3-----------3-----0----------| 
B|-3-----------3-----------3-----3-----3-----3-----------3-----3-----3-----------3-----3----------| 
G|-4-----------4-----------4-----4-----4-----4-----------4-----4-----4-----------4-----4----------| 
D|-5-----------5-----------5-----5-----5-----5-----------5-----5-----5-----------5-----5----------| 
A|------------------------------------------------------------------------------------------------| 
E|------------------------------------------------------------------------------------------------| 
+ 
e|-0-----------0-----------0-----0-----0-----7-----------7-----0-----7-----------7-----0-----0----| 
B|-5-----------5-----------5-----5-----5-----5-----------5-----5-----5-----------5-----5-----5----| 
G|-6-----------6-----------6-----6-----6-----6-----------6-----6-----6-----------6-----6-----6----| 
D|-7-----------7-----------7-----7-----7-----7-----------7-----7-----7-----------7-----7-----7----| 
A|------------------------------------------------------------------------------------------------| 
E|------------------------------------------------------------------------------------------------| 
+ 
e|-0-----------0-----------0-----0-----0-----5-----------5-----0-----3-----------3-----0----------| 
B|-3-----------3-----------3-----3-----3-----3-----------3-----3-----3-----------3-----3----------| 
G|-4-----------4-----------4-----4-----4-----4-----------4-----4-----4-----------4-----4----------| 
D|-5-----------5-----------5-----5-----5-----5-----------5-----5-----5-----------5-----5----------| 
A|------------------------------------------------------------------------------------------------| 
E|------------------------------------------------------------------------------------------------| 
+ 
e|-0-----------0-----------0-----0-----0-----7-----------7-----0-----7-----------7-----0-----0----| 
B|-5-----------5-----------5-----5-----5-----5-----------5-----5-----5-----------5-----5-----5----| 
G|-6-----------6-----------6-----6-----6-----6-----------6-----6-----6-----------6-----6-----6----| 
D|-7-----------7-----------7-----7-----7-----7-----------7-----7-----7-----------7-----7-----7----| 
A|------------------------------------------------------------------------------------------------| 
E|------------------------------------------------------------------------------------------------| 
+ 
e|-0-----------0-----------0-----0-----0-----5-----------5-----0-----3-----------3-----0----------| 
B|-3-----------3-----------3-----3-----3-----3-----------3-----3-----3-----------3-----3----------| 
G|-4-----------4-----------4-----4-----4-----4-----------4-----4-----4-----------4-----4----------| 
D|-5-----------5-----------5-----5-----5-----5-----------5-----5-----5-----------5-----5----------| 
A|------------------------------------------------------------------------------------------------| 
E|------------------------------------------------------------------------------------------------| 



Chorus I: 
e|-0-----------0-----0-----------0-----0-----0-----0-----------0-----0-----------0-----0-----0----| 
B|-5-----------5-----5-----------5-----5-----5-----7-----------7-----7-----------7-----7-----7----| 
G|-6-----------6-----6-----------6-----6-----6-----8-----------8-----8-----------8-----8-----8----| 
D|-7-----------7-----7-----------7-----7-----7-----9-----------9-----9-----------9-----9-----9----| 
A|------------------------------------------------------------------------------------------------| 
E|------------------------------------------------------------------------------------------------| 
+ 
e|-0-----------0-----0-----------0-----0-----0-----0-----------0-----0-----------0-----0-----0----| 
B|-8-----------8-----8-----------8-----8-----8-----10----------10----10----------10----10----10---| 
G|-9-----------9-----9-----------9-----9-----9-----11----------11----11----------11----11----11---| 
D|-10----------10----10----------10----10----10----12----------12----12----------12----12----12---| 
A|------------------------------------------------------------------------------------------------| 
E|------------------------------------------------------------------------------------------------| 
+ 
e|-0-----------0-----0-----------0-----0-----0-----0-----------0-----0-----------0-----0-----0----| 
B|-5-----------5-----5-----------5-----5-----5-----7-----------7-----7-----------7-----7-----7----| 
G|-6-----------6-----6-----------6-----6-----6-----8-----------8-----8-----------8-----8-----8----| 
D|-7-----------7-----7-----------7-----7-----7-----9-----------9-----9-----------9-----9-----9----| 
A|------------------------------------------------------------------------------------------------| 
E|------------------------------------------------------------------------------------------------| 
+ 
e|-0-----------0-----0-----------0-----0-----0-----0-----------0-----12----------12----0-----14---| 
B|-8-----------8-----8-----------8-----8-----8-----10----------10----10----------10----10----10---| 
G|-9-----------9-----9-----------9-----9-----9-----11----------11----11----------11----11----11---| 
D|-10----------10----10----------10----10----10----12----------12----12----------12----12----12---| 
A|------------------------------------------------------------------------------------------------| 
E|------------------------------------------------------------------------------------------------| 
+ 
e|-------14----0-----12----------12----0-----0-----0-----------0-----12----------12----0-----14---| 
B|-------10----10----10----------10----10----10----10----------10----10----------10----10----10---| 
G|-------11----11----11----------11----11----11----11----------11----11----------11----11----11---| 
D|-------12----12----12----------12----12----12----12----------12----12----------12----12----12---| 
A|------------------------------------------------------------------------------------------------| 
E|------------------------------------------------------------------------------------------------| 
+ 
e|-------14----0-----12----------12----0-----0----| 
B|-------10----10----10----------10----10----10---| 
G|-------11----11----11----------11----11----11---| 
D|-------12----12----12----------12----12----12---| 
A|------------------------------------------------| 
E|------------------------------------------------| 



VERSE II: 
e|-0-----------0-----------0-----0-----0-----7-----------7-----0-----7-----------7-----0-----0----| 
B|-5-----------5-----------5-----5-----5-----5-----------5-----5-----5-----------5-----5-----5----| 
G|-6-----------6-----------6-----6-----6-----6-----------6-----6-----6-----------6-----6-----6----| 
D|-7-----------7-----------7-----7-----7-----7-----------7-----7-----7-----------7-----7-----7----| 
A|------------------------------------------------------------------------------------------------| 
E|------------------------------------------------------------------------------------------------| 
+ 
e|-0-----------0-----------0-----0-----0-----5-----------5-----0-----3-----------3-----0----------| 
B|-3-----------3-----------3-----3-----3-----3-----------3-----3-----3-----------3-----3----------| 
G|-4-----------4-----------4-----4-----4-----4-----------4-----4-----4-----------4-----4----------| 
D|-5-----------5-----------5-----5-----5-----5-----------5-----5-----5-----------5-----5----------| 
A|------------------------------------------------------------------------------------------------| 
E|------------------------------------------------------------------------------------------------| 
+ 
e|-0-----------0-----------0-----0-----0-----7-----------7-----0-----7-----------7-----0-----0----| 
B|-5-----------5-----------5-----5-----5-----5-----------5-----5-----5-----------5-----5-----5----| 
G|-6-----------6-----------6-----6-----6-----6-----------6-----6-----6-----------6-----6-----6----| 
D|-7-----------7-----------7-----7-----7-----7-----------7-----7-----7-----------7-----7-----7----| 
A|------------------------------------------------------------------------------------------------| 
E|------------------------------------------------------------------------------------------------| 
+ 
e|-0-----------0-----------0-----0-----0-----5-----------5-----0-----3-----------3-----0----------| 
B|-3-----------3-----------3-----3-----3-----3-----------3-----3-----3-----------3-----3----------| 
G|-4-----------4-----------4-----4-----4-----4-----------4-----4-----4-----------4-----4----------| 
D|-5-----------5-----------5-----5-----5-----5-----------5-----5-----5-----------5-----5----------| 
A|------------------------------------------------------------------------------------------------| 
E|------------------------------------------------------------------------------------------------| 
+ 
e|-0-----------0-----0-----------0-----0-----0-----0-----------0-----0-----------0-----0-----0----| 
B|-5-----------5-----5-----------5-----5-----5-----5-----------5-----5-----------5-----5-----5----| 
G|-6-----------6-----6-----------6-----6-----6-----6-----------6-----6-----------6-----6-----6----| 
D|-7-----------7-----7-----------7-----7-----7-----7-----------7-----7-----------7-----7-----7----| 
A|------------------------------------------------------------------------------------------------| 
E|------------------------------------------------------------------------------------------------| 
+ 
e|-0-----------0-----0-----5-----------0-----3-----------------------0-----5----------------------| 
B|-3-----------3-----3-----3-----3-----3-----3-----3-----3-----3-----3-----3-----3-----3-----3----| 
G|-4-----------4-----4-----4-----4-----4-----4-----4-----4-----4-----4-----4-----4-----4-----4----| 
D|-5-----------5-----5-----5-----5-----5-----5-----5-----5-----5-----5-----5-----5-----5-----5----| 
A|------------------------------------------------------------------------------------------------| 
E|------------------------------------------------------------------------------------------------| 
+ 
e|-0-----------0-----0-----------0-----0-----0-----0-----------0-----0-----------0-----0-----0----| 
B|-5-----------5-----5-----------5-----5-----5-----5-----------5-----5-----------5-----5-----5----| 
G|-6-----------6-----6-----------6-----6-----6-----6-----------6-----6-----------6-----6-----6----| 
D|-7-----------7-----7-----------7-----7-----7-----7-----------7-----7-----------7-----7-----7----| 
A|------------------------------------------------------------------------------------------------| 
E|------------------------------------------------------------------------------------------------| 
+ 
e|-0-----------0-----0-----5-----------0-----3-----------------------0-----5----------------------| 
B|-3-----------3-----3-----3-----3-----3-----3-----3-----3-----3-----3-----3-----3-----3-----3----| 
G|-4-----------4-----4-----4-----4-----4-----4-----4-----4-----4-----4-----4-----4-----4-----4----| 
D|-5-----------5-----5-----5-----5-----5-----5-----5-----5-----5-----5-----5-----5-----5-----5----| 
A|------------------------------------------------------------------------------------------------| 
E|------------------------------------------------------------------------------------------------| 
+ 
e|-0-----------0-----------0-----0-----0-----7-----------7-----0-----7-----------7-----0-----0----| 
B|-5-----------5-----------5-----5-----5-----5-----------5-----5-----5-----------5-----5-----5----| 
G|-6-----------6-----------6-----6-----6-----6-----------6-----6-----6-----------6-----6-----6----| 
D|-7-----------7-----------7-----7-----7-----7-----------7-----7-----7-----------7-----7-----7----| 
A|------------------------------------------------------------------------------------------------| 
E|------------------------------------------------------------------------------------------------| 
+ 
e|-0-----------0-----------0-----0-----0-----5-----------5-----0-----3-----------3-----0----------| 
B|-3-----------3-----------3-----3-----3-----3-----------3-----3-----3-----------3-----3----------| 
G|-4-----------4-----------4-----4-----4-----4-----------4-----4-----4-----------4-----4----------| 
D|-5-----------5-----------5-----5-----5-----5-----------5-----5-----5-----------5-----5----------| 
A|------------------------------------------------------------------------------------------------| 
E|------------------------------------------------------------------------------------------------| 
+ 
e|-0-----------0-----------0-----0-----0-----7-----------7-----0-----7-----------7-----0-----0----| 
B|-5-----------5-----------5-----5-----5-----5-----------5-----5-----5-----------5-----5-----5----| 
G|-6-----------6-----------6-----6-----6-----6-----------6-----6-----6-----------6-----6-----6----| 
D|-7-----------7-----------7-----7-----7-----7-----------7-----7-----7-----------7-----7-----7----| 
A|------------------------------------------------------------------------------------------------| 
E|------------------------------------------------------------------------------------------------| 
+ 
e|-0-----------0-----------0-----0-----0-----5-----------5-----0-----3-----------3-----0----------| 
B|-3-----------3-----------3-----3-----3-----3-----------3-----3-----3-----------3-----3----------| 
G|-4-----------4-----------4-----4-----4-----4-----------4-----4-----4-----------4-----4----------| 
D|-5-----------5-----------5-----5-----5-----5-----------5-----5-----5-----------5-----5----------| 
A|------------------------------------------------------------------------------------------------| 
E|------------------------------------------------------------------------------------------------| 



Chorus II: 
e|-0-----------0-----0-----------0-----0-----0-----0-----------0-----9----------------------------| 
B|-5-----------5-----5-----------5-----5-----5-----7-----------7-----7-----------7----------------| 
G|-6-----------6-----6-----------6-----6-----6-----8-----------8-----8-----------------8----------| 
D|-7-----------7-----7-----------7-----7-----7-----9-----------9-----9-----------------------9----| 
A|------------------------------------------------------------------------------------------------| 
E|------------------------------------------------------------------------------------------------| 
+ 
e|-0-----------0-----10----------------------------0-----------0-----12---------------------------| 
B|-8-----------8-----8-----------8-----------------10----------10----10----------10---------------| 
G|-9-----------9-----9-----------------9-----------11----------11----11----------------11---------| 
D|-10----------10----10----------------------10----12----------12----12----------------------12---| 
A|------------------------------------------------------------------------------------------------| 
E|------------------------------------------------------------------------------------------------| 
+ 
e|-0-----------0-----0-----------0-----0-----0-----0-----------0-----9----------------------------| 
B|-5-----------5-----5-----------5-----5-----5-----7-----------7-----7-----------7----------------| 
G|-6-----------6-----6-----------6-----6-----6-----8-----------8-----8-----------------8----------| 
D|-7-----------7-----7-----------7-----7-----7-----9-----------9-----9-----------------------9----| 
A|------------------------------------------------------------------------------------------------| 
E|------------------------------------------------------------------------------------------------| 
+ 
e|-0-----------0-----10----------------------------0-----------0-----12----------12----0-----14---| 
B|-8-----------8-----8-----------8-----------------10----------10----10----------10----10----10---| 
G|-9-----------9-----9-----------------9-----------11----------11----11----------11----11----11---| 
D|-10----------10----10----------------------10----12----------12----12----------12----12----12---| 
A|------------------------------------------------------------------------------------------------| 
E|------------------------------------------------------------------------------------------------| 
+ 
e|-------14----0-----12----------12----0-----0-----0-----------0-----12----------12----0-----14---| 
B|-------10----10----10----------10----10----10----10----------10----10----------10----10----10---| 
G|-------11----11----11----------11----11----11----11----------11----11----------11----11----11---| 
D|-------12----12----12----------12----12----12----12----------12----12----------12----12----12---| 
A|------------------------------------------------------------------------------------------------| 
E|------------------------------------------------------------------------------------------------| 
+ 
e|-------14----x-----12----------12----0-----0----| 
B|-------10----10----10----------10----10----10---| 
G|-------11----11----11----------11----11----11---| 
D|-------12----12----12----------12----12----12---| 
A|------------------------------------------------| 
E|------------------------------------------------| 



VERSE III: 
e|-0-----------0-----------0-----0-----0-----7-----------7-----0-----7-----------7-----0-----0----| 
B|-5-----------5-----------5-----5-----5-----5-----------5-----5-----5-----------5-----5-----5----| 
G|-6-----------6-----------6-----6-----6-----6-----------6-----6-----6-----------6-----6-----6----| 
D|-7-----------7-----------7-----7-----7-----7-----------7-----7-----7-----------7-----7-----7----| 
A|------------------------------------------------------------------------------------------------| 
E|------------------------------------------------------------------------------------------------| 
+ 
e|-0-----------0-----------0-----0-----0-----5-----------5-----0-----3-----------3-----0----------| 
B|-3-----------3-----------3-----3-----3-----3-----------3-----3-----3-----------3-----3----------| 
G|-4-----------4-----------4-----4-----4-----4-----------4-----4-----4-----------4-----4----------| 
D|-5-----------5-----------5-----5-----5-----5-----------5-----5-----5-----------5-----5----------| 
A|------------------------------------------------------------------------------------------------| 
E|------------------------------------------------------------------------------------------------| 
+ 
e|-0-----------0-----------0-----0-----0-----7-----------7-----0-----7-----------7-----0-----0----| 
B|-5-----------5-----------5-----5-----5-----5-----------5-----5-----5-----------5-----5-----5----| 
G|-6-----------6-----------6-----6-----6-----6-----------6-----6-----6-----------6-----6-----6----| 
D|-7-----------7-----------7-----7-----7-----7-----------7-----7-----7-----------7-----7-----7----| 
A|------------------------------------------------------------------------------------------------| 
E|------------------------------------------------------------------------------------------------| 
+ 
e|-0-----------0-----------0-----0-----0-----5-----------5-----0-----3-----------3-----0----------| 
B|-3-----------3-----------3-----3-----3-----3-----------3-----3-----3-----------3-----3----------| 
G|-4-----------4-----------4-----4-----4-----4-----------4-----4-----4-----------4-----4----------| 
D|-5-----------5-----------5-----5-----5-----5-----------5-----5-----5-----------5-----5----------| 
A|------------------------------------------------------------------------------------------------| 
E|------------------------------------------------------------------------------------------------| 
+ 
e|-0-----------0-----------0-----0-----0-----7-----------7-----0-----7-----------7-----0-----0----| 
B|-5-----------5-----------5-----5-----5-----5-----------5-----5-----5-----------5-----5-----5----| 
G|-6-----------6-----------6-----6-----6-----6-----------6-----6-----6-----------6-----6-----6----| 
D|-7-----------7-----------7-----7-----7-----7-----------7-----7-----7-----------7-----7-----7----| 
A|------------------------------------------------------------------------------------------------| 
E|------------------------------------------------------------------------------------------------| 
+ 
e|-0-----------0-----------0-----0-----0-----5-----------5-----0-----3-----------3-----0----------| 
B|-3-----------3-----------3-----3-----3-----3-----------3-----3-----3-----------3-----3----------| 
G|-4-----------4-----------4-----4-----4-----4-----------4-----4-----4-----------4-----4----------| 
D|-5-----------5-----------5-----5-----5-----5-----------5-----5-----5-----------5-----5----------| 
A|------------------------------------------------------------------------------------------------| 
E|------------------------------------------------------------------------------------------------| 
+ 
e|-0-----------0-----------0-----0-----0-----7-----------7-----0-----7-----------7-----0-----0----| 
B|-5-----------5-----------5-----5-----5-----5-----------5-----5-----5-----------5-----5-----5----| 
G|-6-----------6-----------6-----6-----6-----6-----------6-----6-----6-----------6-----6-----6----| 
D|-7-----------7-----------7-----7-----7-----7-----------7-----7-----7-----------7-----7-----7----| 
A|------------------------------------------------------------------------------------------------| 
E|------------------------------------------------------------------------------------------------| 
+ 
e|-0-----------0-----------0-----0-----0-----5-----------5-----0-----3-----------3-----0----------| 
B|-3-----------3-----------3-----3-----3-----3-----------3-----3-----3-----------3-----3----------| 
G|-4-----------4-----------4-----4-----4-----4-----------4-----4-----4-----------4-----4----------| 
D|-5-----------5-----------5-----5-----5-----5-----------5-----5-----5-----------5-----5----------| 
A|------------------------------------------------------------------------------------------------| 
E|------------------------------------------------------------------------------------------------| 



OUTRO: 
e|-0-----------0-----0-----------0-----0-----0-----------0-----0-----0-----------0-----0-----0----| 
B|-5-----------5-----5-----------5-----5-----7-----------5-----5-----7-----------5-----5-----5----| 
G|-6-----------6-----6-----------6-----6-----6-----------6-----6-----6-----------6-----6-----6----| 
D|-7-----------7-----7-----------7-----7-----7-----------7-----7-----7-----------7-----7-----7----| 
A|------------------------------------------------------------------------------------------------| 
E|------------------------------------------------------------------------------------------------| 
+ 
e|-0-----------0-----0-----------0-----0-----0-----------x-----------3-----------x----------------| 
B|-3-----------3-----3-----------3-----3-----5-----------3-----------x-----------3-----3-----3----| 
G|-4-----------4-----4-----------4-----4-----4-----------4-----------4-----------4-----4-----4----| 
D|-5-----------5-----5-----------5-----5-----5-----------5-----------5-----------5-----5-----5----| 
A|------------------------------------------------------------------------------------------------| 
E|------------------------------------------------------------------------------------------------| 
+ 
e|-0-----------0-----0-----------0-----0-----0-----------0-----0-----0-----------0-----0-----0----| 
B|-5-----------5-----5-----------5-----5-----7-----------5-----5-----7-----------5-----5-----5----| 
G|-6-----------6-----6-----------6-----6-----6-----------6-----6-----6-----------6-----6-----6----| 
D|-7-----------7-----7-----------7-----7-----7-----------7-----7-----7-----------7-----7-----7----| 
A|------------------------------------------------------------------------------------------------| 
E|------------------------------------------------------------------------------------------------| 
+ 
e|-0-----------0-----0-----------0-----0-----0-----------x-----------3-----------x----------------| 
B|-3-----------3-----3-----------3-----3-----5-----------3-----------x-----------3-----3-----3----| 
G|-4-----------4-----4-----------4-----4-----4-----------4-----------4-----------4-----4-----4----| 
D|-5-----------5-----5-----------5-----5-----5-----------5-----------5-----------5-----5-----5----| 
A|------------------------------------------------------------------------------------------------| 
E|------------------------------------------------------------------------------------------------| 
+ 
e|-0-----------------------------7-----------5----------------------------------------------------| 
B|-5-----------------------5-----------------------------7-----------5----------------------------| 
G|-6-----------------6-----------------------------------------------------------7-----6----------| 
D|-7-----------7-----------------------------------------------------------------------------7----| 
A|------------------------------------------------------------------------------------------------| 
E|------------------------------------------------------------------------------------------------| 
+ 
e|-0-----------------------------5-----------3----------------------------------------------------| 
B|-3-----------------------3-----------------------------5-----------3----------------------------| 
G|-4-----------------4-----------------------------------------------------------5-----4----------| 
D|-5-----------5-----------------------------------------------------------------------------5----| 
A|------------------------------------------------------------------------------------------------| 
E|------------------------------------------------------------------------------------------------| 
+ 
e|-0-----------------------------7-----------5----------------------------------------------------| 
B|-5-----------------------5-----------------------------7-----------5----------------------------| 
G|-6-----------------6-----------------------------------------------------------7-----6----------| 
D|-7-----------7-----------------------------------------------------------------------------7----| 
A|------------------------------------------------------------------------------------------------| 
E|------------------------------------------------------------------------------------------------| 
+ 
e|-0-----------------------------5-----------3----------------------------------------------------| 
B|-3-----------------------3-----------------------------5-----------3----------------------------| 
G|-4-----------------4-----------------------------------------------------------5-----4----------| 
D|-5-----------5-----------------------------------------------------------------------------5----| 
A|------------------------------------------------------------------------------------------------| 
E|------------------------------------------------------------------------------------------------| 
+ 
e|-0-----------------------------7-----------5----------------------------------------------------| 
B|-5-----------------------5-----------------------------7-----------5----------------------------| 
G|-6-----------------6-----------------------------------------------------------7-----6----------| 
D|-7-----------7-----------------------------------------------------------------------------7----| 
A|------------------------------------------------------------------------------------------------| 
E|------------------------------------------------------------------------------------------------| 
+ 
e|-0-----------------------------5-----------3----------------------------------------------------| 
B|-3-----------------------3-----------------------------5-----------3----------------------------| 
G|-4-----------------4-----------------------------------------------------------5-----4----------| 
D|-5-----------5-----------------------------------------------------------------------------5----| 
A|------------------------------------------------------------------------------------------------| 
E|------------------------------------------------------------------------------------------------| 
+ 
e|-0-----------------------------7-----------5----------------------------------------------------| 
B|-5-----------------------5-----------------------------7-----------5----------------------------| 
G|-6-----------------6-----------------------------------------------------------7-----6----------| 
D|-7-----------7-----------------------------------------------------------------------------7----| 
A|------------------------------------------------------------------------------------------------| 
E|------------------------------------------------------------------------------------------------| 
+ 
e|-0-----------------------------5-----------3----------------------------------------------------| 
B|-3-----------------------3-----------------------------5-----------3----------------------------| 
G|-4-----------------4-----------------------------------------------------------5-----4----------| 
D|-5-----------5-----------------------------------------------------------------------------5----| 
A|------------------------------------------------------------------------------------------------| 
E|------------------------------------------------------------------------------------------------| 
+ 
e|-0-----------0-----0-----------0-----0-----0-----------0-----0-----0-----------0-----0-----0----| 
B|-5-----------5-----5-----------5-----5-----7-----------5-----5-----7-----------5-----5-----5----| 
G|-6-----------6-----6-----------6-----6-----6-----------6-----6-----6-----------6-----6-----6----| 
D|-7-----------7-----7-----------7-----7-----7-----------7-----7-----7-----------7-----7-----7----| 
A|------------------------------------------------------------------------------------------------| 
E|------------------------------------------------------------------------------------------------| 
+ 
e|-0-----------0-----0-----------0-----0-----0-----------x-----------3-----------x----------------| 
B|-3-----------3-----3-----------3-----3-----5-----------3-----------x-----------3-----3-----3----| 
G|-4-----------4-----4-----------4-----4-----4-----------4-----------4-----------4-----4-----4----| 
D|-5-----------5-----5-----------5-----5-----5-----------5-----------5-----------5-----5-----5----| 
A|------------------------------------------------------------------------------------------------| 
E|------------------------------------------------------------------------------------------------| 
+ 
e|-0-----------0-----0-----------0-----0-----0-----------0-----0-----0-----------0-----0-----0----| 
B|-5-----------5-----5-----------5-----5-----7-----------5-----5-----7-----------5-----5-----5----| 
G|-6-----------6-----6-----------6-----6-----6-----------6-----6-----6-----------6-----6-----6----| 
D|-7-----------7-----7-----------7-----7-----7-----------7-----7-----7-----------7-----7-----7----| 
A|------------------------------------------------------------------------------------------------| 
E|------------------------------------------------------------------------------------------------| 
+ 
e|-0-----------0-----0-----------0-----0-----0-----------x-----------3-----------x----------------| 
B|-3-----------3-----3-----------3-----3-----5-----------3-----------x-----------3-----3-----3----| 
G|-4-----------4-----4-----------4-----4-----4-----------4-----------4-----------4-----4-----4----| 
D|-5-----------5-----5-----------5-----5-----5-----------5-----------5-----------5-----5-----5----| 
A|------------------------------------------------------------------------------------------------| 
E|------------------------------------------------------------------------------------------------| 



SONG STRUCTURE: 

INTRO 
VERSE I 
Chorus I 
VERSE II 
Chorus II 
VERSE III 
OUTRO  
		  

See also:

tabs Futures - 16 tabs Dan Croll - Home tabs Clarence Wijewardena - Malata Bambareku Se tabs Secrets - Sleep Well Darling tabs Roo Panes - Tiger Striped Sky tabs The Lumineers - Aint Nobodys Problem
e-chords

Other versions:

tabs Felt - Something Sends Me To Sleep
auto scroll beats size up size down change color hide chords drawings
tab show chords e-chords YouTube Clip e-chords hide all tabs e-chords go to top tab

share