Fear Factory

home > Fear Factory

Echoes Of Innocence Tab

Fear Factory

Difficulty: nolevelnolevel

tuner correct add songbook print version text version save to e-mail
chordsukulelecavacokeyboardtabbassdrumsharmonicsflute Guitar Pro
chords

Echoes Of Innocence

  		Tabbed By: Colonel Saac 
 
Tune B Standard 
 
Starts with distorted Bass 
then... 
Riff1(Intro Riffs) 
|-----------------|---------------| 
|-----------------|---------------| 
|-----------------|---------------| 
|-----------------|--9-8----7-6---| 
|-2-1---0---------|-------9----7--| 
|------2---4--0---|---------------| 
 
G2 back ground 
|------------------------------| 
|------------------------------| 
|------------------------------| 
|------------------------------| 
|-2-2-2-2-2-2-2-2---2-2--2-2---| 
|-0-0-0-0-0-0-0-0---0-0--0-0---| 
  * * * * * * * *   * *  * *  
 
Riff2 
|---------|---------------------| 
|---------|---------------------| 
|---------|---------------------| 
|---------|---------------------| 
|-6-6-3-5-|--6-6-3-5-2-2--------| 
|-4-4-1-3-|--4-4-1-3-0-0--------| 
             * * * * * * 
 
Riff3 
 
|-----------------------------------------| 
|-----------------------------------------| 
|-----------------------------------------| 
|-----------------------------------------| 
|-------3------3------3-------------------| 
|-000000100000010000001-0000-333333-------| 
 ********************** **** ****** 
 
End Chord 
|--------------| 
|--------------| 
|--------------| 
|--------------| 
|--2-----------| 
|--0-----------| 
holding 
 
Good song. \m/ommy. 
 

	  

Search Paypal
auto scroll beats size up size down change color hide chords drawings
tab show chords e-chords YouTube Clip e-chords hide all tabs e-chords go to top tab