Face To Face

home > Face To Face

Walk Away Tab

Face To Face

Difficulty: nolevelnolevel

by tercmoraes

tuner correct add songbook print version text version save to e-mail
chordsukulelecavacokeyboardtabbassdrumsharmonicsflute Guitar Pro
chords

Walk Away

  				(intro)
E|-------------------------------------------------------------------------|
B|-------------------------------------------------------------------------|
G|-7--x-x-x--7-7-7--9--5---------------------------------------------------|
D|-7--x-x-x--5-5-5--9--5---------------------------------------------------|
A|-5--x-x-x---------7--3---------------------------------------------------|
E|-------------------------------------------------------------------------|

(verso 2x)
E|-------------------------------------------------------------------------|
B|-------------------------------------7-7-7-------------------------------|
G|-7--------5-7-------9-5-7------5-7---7-7-7-9-5-7-------------------------|
D|-7--------5-7-------9-5-7------5-7---5-5-5-9-5-7-------------------------|
A|-5--------3-5-------7-3-5------3-5---------7-3-5-------------------------|
E|-------------------------------------------------------------------------|

(refrão)
E|-------------------------------------------------------------------------|
B|-------------------------------------------------------------------------|
G|-----7---4---5-----------------------------------------------------------|
D|-5---7---4---5-----------------------------------------------------------|
A|-5---5---2---3-----------------------------------------------------------|
E|-3-----------------------------------------------------------------------|

(intro)

(verso)

(solo)
E|-------------------------------------------------------------------------|
B|-----------------------7-----11-------12-11-14-----12-11-12-11-9-7-------|
G|-7---------------------0-----0--------0--0--0------0--0--0--0--0-0-------|
D|-7-----------------------------------------------------------------------|
A|-5-----------------------------------------------------------------------|
E|-------------------------------------------------------------------------|

E|-------------------------------------------------------------------------|
B|-------------------------------------------------------------------------|
G|----------------4---5----------------------------------------------------|
D|-5--------------4---5----------------------------------------------------|
A|-5--------------2---3----------------------------------------------------|
E|-3-----------------------------------------------------------------------| 
	  

Search Paypal
auto scroll beats size up size down change color hide chords drawings
tab show chords e-chords YouTube Clip e-chords hide all tabs e-chords go to top tab