Every Time I Die

If There Is Room To Move Things Move

Every Time I Die

tabs

by  TARIKIKE

save to print version add songbook text version e-mail correct tuner
chordsukulelecavacokeyboardtabbassdrumsharmonicaflute Guitar Pro
close

there isn't a video lesson for this song

chords

If There Is Room To Move Things Move

	  		

INTRO 
Both Guitars 
E|-----------------------------------------------------------| 
B|-----------------------------------------------------------| 
G|----------------------10-----------------------------------| 
D|-2---3-6---7--10--11--10--11-7--10-----2-------------------| 
A|-2---3-6---7--10--11---8--11-7--10-7-6-2-------------------| 
D|-2---3-6---7--10--11------11-7--10-7-6-2--33336666-0-0-0-0-| 
                                     . .    ........ 
Guitar 1 
E|-----------------------------------------------| 
B|-----------------------------------------------| 
G|-----------------------------------------------| 
D|---------------------------------------2-2-3-6-| 
A|---------------------------------------2-2-3-6-| 
D|-000000-0-0-0-0-000000-0-0-0-0-0-0-0-0-2-2-3-6-| 
   ......         ...... 
Guitar 1 
E|----------------------------------------------------| 
B|----------------------------------------------------| 
G|----------------------------------------------------| 
D|-------------------------------------------------0--| 
A|-------------------------------------------------0--| 
D|-0-0-0-0-000000-0-0-0-0-000000-0-0-0-0-0-0-0-0-0-0--| 
||         ......         ...... 
Guitar 2 
E|----------------------------------------------------| 
B|----------------------------------------------------| 
G|----------------------------------------------------| 
D|-0-----------------------------------------------0--| 
A|-0-(let-ring)------------------------------------0--| 
D|-0-----------------------------------------------0--| 

SECTION 1 
Both Guitars 
E|------------------------------------------------------------------| 
B|------------------------------------------------------------------| 
G|------------------------------------------------------------------| 
D|-11-7--10-6-------6-6--6-6-------11-7--10-6-------6-6--6-6--------| 
A|-11-7--10-6-------6-6--6-6-------11-7--10-6-------6-6--6-6--------| 
D|-11-7--10-6-6666666-6--6-6-66666611-7--10-6-6666666-6--6-6-666666-| 
              ......         ......           ......         ...... 

E|--------------------------------------------------------| 
B|--------------------------------------------------------| 
G|--------------------------------------------------------| 
D|-------------------------33332--11-7--10-----2----------| 
A|-----------------33334444-------11-7--10-7-6-2----------| 
D|-2222333366666666---------------11-7--10-7-6-2-33336666-| 
                                           . .   ........ 

E|---------------------------------------------------------| 
B|---------------------------------------------------------| 
G|---------------------------------------------------------| 
D|-------------------------------------------------2-2-3-6-|x2 
A|-------------------------------------------------2-2-3-6-| 
D|-0-0--0-0-000000-0-0--0-0-000000-0-0-0-0-0-0-0-0-2-2-3-6-| 
            ......          ...... 
SECTION 2 
Guitar 1 
E|----------------------------------------------------------------------------------------------| 
B|----------------------------------------------------------------------------------------------| 
G|----------------------------------------------------------------------------------------------| 
D|-0-0-0-0----0-0-0-0-----0-0-0-0----0-0-2-2-3-6-0-0-0-0-----0-0-0-0----0-0-0-0-----0-0-2-2-3-6-| 
A|-0-0-0-0----0-0-0-0-0-0-0-0-0-0----0-0-2-2-3-6-0-0-0-0-0-0-0-0-0-0----0-0-0-0-0-0-0-0-2-2-3-6-| 
D|-0-0-0-0----0-0-0-0-0-0-0-0-0-0----0-0-2-2-3-6-0-0-0-0-0-0-0-0-0-0----0-0-0-0-0-0-0-0-2-2-3-6-| 
||                    . .                                . .                    . . 
Guitar 2 
E|----------------------------------------------------------------------------------------------| 
B|----------------------------------------------------------------------------------------------| 
G|----------------------------------------------------------------------------------------------| 
D|-0-0-0-0----0-0-0-0-----0-0-0-0----0-0-2-2-3-6-0-0-0-0-----0-0-0-0----0-0-0-0-----0-0-2-2-3-6-| 
A|-0-0-0-0----0-0-0-0-----0-0-0-0----0-0-2-2-3-6-0-0-0-0-----0-0-0-0----0-0-0-0-----0-0-2-2-3-6-| 
D|-0-0-0-0----0-0-0-0-----0-0-0-0----0-0-2-2-3-6-0-0-0-0-----0-0-0-0----0-0-0-0-----0-0-2-2-3-6-| 

SECTION 3 
Both Guitars 
E|---------------------------------------------------0---| 
B|---------------------------------------------------0---| 
G|----------------------10---------------------------0---| 
D|-2---3-6---7--10--11--10--11-7--10-----2-----------0---| 
A|-2---3-6---7--10--11---8--11-7--10-7-6-2-----------0---| 
D|-2---3-6---7--10--11------11-7--10-7-6-2--33336666-0---| 
                                     . .    ........ 
Guitar 1 
E|----------10-----11-----13-----15----20---------------------------------------11--13\\-| 
B|----------13b15--14b16--16b18--18b20-20--r18--------12----12--11------11--13-----------| 
G|----------------------------------------------10-13----13---------12-------------------| 
D|---------------------------------------------------------------------------------------| 
A|---------------------------------------------------------------------------------------| 
D|---------------------------------------------------------------------------------------| 
|| 
Guitar 2 
E|-(0)--------------------------------------0-----------------------------------------\\-| 
B|-(0)--------------------------------------0-----------------------------------------\\-| 
G|-(0)--------------------------------------0-----------------------------------------\\-| 
D|-(0)------------------------------2-2-3-6-0-----------------------------------------\\-| 
A|-(0)------------------------------2-2-3-6-0-----------------------------------------\\-| 
D|-(0)------------------------------2-2-3-6-0-----------------------------------------\\-| 

NOTE: There is some sort of pick slide or dive bomb at the end of SECTION 3. Not sure. 

SECTION 4 
Both Guitars 
E|------------------------------------------------------------------| 
B|------------------------------------------------------------------| 
G|------------------------------------------------------------------| 
D|-11-7--10-6-------6-6--6-6-------11-7--10-6-------6-6--6-6--------| 
A|-11-7--10-6-------6-6--6-6-------11-7--10-6-------6-6--6-6--------| 
D|-11-7--10-6-6666666-6--6-6-66666611-7--10-6-6666666-6--6-6-666666-| 
              ......         ......           ......         ...... 

E|-------------------------------------------------------------| 
B|-------------------------------------------------------------| 
G|-------------------------------------------------------------| 
D|-------------------------33332--11-7--10-----2---------0--0--| 
A|-----------------33334444-------11-7--10-7-6-2---------0--0--| 
D|-2222333366666666---------------11-7--10-7-6-2-333366660--0--| 
                                           . .   ........ 

E|--------------------------------------------------------------| 
B|--------------------------------------------------------------| 
G|--------------------------------------------------------------| 
D|-11-7--10-----2------33332222-0---11-7--10-----2---------0--0-| 
A|-11-7--10-7-6-2--3333---------0---11-7--10-7-6-2---------0--0-| 
D|-11-7--10-7-6-2---------------0---11-7--10-7-6-2-333366660--0-| 
            . .                              . .   ........ 

E|-------------------| 
B|-------------------| 
G|-------------------| 
D|-11-7--10-----2----| 
A|-11-7--10-7-6-2----| 
D|-11-7--10-7-6-2----| 
            . . 

TRANSITION 1 
Guitar 1 
E|---------------------------------------------------------------| 
B|---------------------------------------------------------------| 
G|---------------------------------------------------------------| 
D|-0---0---0---0---0---0---0---0---0---0---0---0---0---0---0---0-| 
A|-0---0---0---0---0---0---0---0---0---0---0---0---0---0---0---0-| 
D|-0---0---0---0---0---0---0---0---0---0---0---0---0---0---0---0-| 
|| 
Guitar 2 
E|---------------------------------------------------------------| 
B|---------------------------------------------------------------| 
G|---------------------------------------------------------------| 
D|-0---0---0---0---0---0---0---0---------------------------------| 
A|-0---0---0---0---0---0---0---0---0-0-0-0-0-0-0-0-0-0-0-0-0-0-0-| 
D|-0---0---0---0---0---0---0---0---0-0-0-0-0-0-0-0-0-0-0-0-0-0-0-| 
                                   . . . . . . . . . . . . . . . 
SECTION 5 
Both Guitars (the hammer-ons might be slides also) 
E|----------------------------------------------------------------------| 
B|----------------------------------------------------------------------| 
G|----------------------------------------------------------------------| 
D|---6\5-----11-7h10-------11-7h10-6-----6\5-----11-7h10---11-7h10-6----|x2 
A|-0-6\5-0-0-11-7h10-0-0-0-11-7h10-6-0-0-6\5-0-0-11-7h10-0-11-7h10-6----| 
D|-0-6\5-0-0-11-7h10-0-0-0-11-7h10-6-0-0-6\5-0-0-11-7h10-0-11-7h10-6----| 
   .     . .         . . .           . .     . .         . 

E|--------------------| 
B|--------------------| 
G|--------------------|  NOTE: This isn't really a slide. It is more of an 
D|-0---0-0-------6\---|        effect that drops the pitch, like a tape when 
A|-0---0-0---0-0-6\---|        it is winding down. 
D|-0---0-0---0-0-6\---| 
             . . 

SECTION 6 
E|--------------------------------------------------------------| 
B|--------------------------------------------------------------| 
G|--------------------------------------------------------------| 
D|---4\3-----9-5h8-------9-5h8-4-----4\3-----9-5h8---9-5h8-4----|x4 
A|-0-4\3-0-0-9-5h8-0-0-0-9-5h8-4-0-0-4\3-0-0-9-5h8-0-9-5h8-4----| 
D|-0-4\3-0-0-9-5h8-0-0-0-9-5h8-4-0-0-4\3-0-0-9-5h8-0-9-5h8-4----| 
   .     . .       . . .         . .     . .       . 

TRANSITION 2 
Both Guitars 
E|-------------------------| 
B|-------------------------| 
G|----------------------10-| 
D|-2---3-6---7--10--11--10-| 
A|-2---3-6---7--10--11---8-| 
D|-2---3-6---7--10--11-----| 

REPEAT SECTION 1 

REPEAT SECTION 2 to end the song (let the last chord ring) 

Pretty fun song if you can build up the fortitude to jump around 
the neck on those power chords. If you like playing them in a 
different position that works too, but this was easiest for me. Enjoy. 
Please rate & comment. 
Thanks, 
millarso 

************************************ 

| /   slide up 
| \   slide down 
| h   hammer-on 
| p   pull-off 
| ~   vibrato 
| +   harmonic 
| x   Mute note 
| b   Bend 
| pb  Pre-bend 
| br  Bend release 
| pbr Pre-bend release 
| brb Bend release bend 

************************************ 
		  

See also:

tabs Jack Johnson - Good People tabs Rage Against The Machine - Killing In The Name (ver. 2) tabs Blue Oyster Cult - Dont Fear The Reaper tabs R.E.M. - Losing my religion tabs Smashing Pumpkins - Today tabs Foo Fighters - Learn to Fly (acoustic version)
e-chords

Other versions:

tabs Every Time I Die - If There Is Room To Move Things Move
auto scroll beats size up size down change color hide chords drawings
tab show chords e-chords YouTube Clip e-chords hide all tabs e-chords go to top tab

share