Eric Clapton

home > Eric Clapton

Theme From A Movie That Never Happened Contre Vents Et Marees Tab

Eric Clapton

Difficulty: ExpertExpert

by VsWorld

tuner correct add songbook print version text version save to e-mail
chordsukulelecavacokeyboardtabbassdrumsharmonicsflute Guitar Pro
chords

Theme From A Movie That Never Happened Contre Vents Et Marees

  		

/ - Slide 
h - Hammer-on 

Intro 
  Asus2             Asus2             Asus2             Asus2 
 |-----------------|-----------------|-----------------|---------------| 
4|-------0---------|-------0---------|-------0---------|-------------0-| 
/|-----2---2---2---|-----2---2---2---|-----2---2---2---|-------2-1-2---| 
4|---2-------2---2-|---2-------2---2-|---2-------2---2-|-----2---------| 
 |-0---------------|-0---------------|-0---------------|-0-------------| 
 |-----------------|-----------------|-----------------|---------------| 
verse 1&2 
  Asus2               F                     Cmaj7 
||-------------------|---------------------|-------------------| 
||*-0h1----------0---|-0h1-----------1h3-1-|-0-----------0h1-0-|      
||-----2---2---2---2-|-----2---2---2-------|---0---0---0-------|      
||-------2-----------|-------3-------------|-----2-------------|      
||*-0--------0-------|---------------------|-3-------3---------|      
||-------------------|-1---------1---------|-------------------|      
  B7      E7sus4   Asus2               F                                  
|-----------------|-------------------|---------------------|        
|-------0-------0-|-0h1-----------0---|-0h1-----------1h3-1-|        
|-2---2---2-1-2---|-----2---2---2---2-|-----2---2---2-------|        
|---1-----0-------|-------2-----------|-------3-------------|        
|-2-------2-------|-0---------0-------|---------------------|        
|---------0-------|-------------------|-1---------1---------|        
                                  Chorus 1&2 
  Cmaj7              B7       E7       Dm                         
|-------------------|---------------0-|-0h1-----------0---|          
|-0-----------0h1-0-|-------0---0-3---|-----3---3---3---3-|          
|---0---0---0-------|-2---2---1-------|-------2-----------|          
|-----2-------------|---1-----0-------|-0---------0-------|          
|-3-------3---------|-2-------2-------|-------------------|          
|-------------------|---------0-------|-------------------|          
  Bb                   C                   Dsus2/B  E7sus4                
|-0h1-----------1h3-1-|-0-----------0h1-0-|-------0---------|        
|---------3-----------|---1---1---1-------|-3---3---------0-|        
|-------3-------------|-----0-------------|---2-----2-1-2---|        
|-----0-------0-------|-------------------|---------0-------|        
|-1---------1---------|-3-------3---------|-2-------2-------|               
|---------------------|-------------------|---------0-------|        
 Asus2               F                   ?        E7sus4                  
|-------------------|-------------------|-----------------|          
|-0h1-----------0---|-0h1-----------0---|-1---0---0-------|          
|-----2---2---2---2-|-----2---2---2---2-|-------2-----2-1-|          
|-------2-----------|-------3-----------|---1-------------|          
|-0---------0-------|-------------------|-----------2-----|          
|-------------------|-1---------1-------|-2-------0-------| 
 ________________   ____________________   
 |1  Asus2          |2 A 
 |---------------||-|----------------0---| 
3|------------0-*||4|---------0-2-/3---3-| 
/|---2---2-1-2---||/|---0---2------------| 
4|-----2---------||4|-----2--------------| 
 |---0----------*||-|---0----------------| 
 |---------------||-|--------------------| 

Brigde 
 A                 Dsus2/F#          Dsus2/E   E7 
|-------------0---|-------0-------0-|-0------------0---| 
|-2---------2---3-|-3---3-------3---|---3---3----3---3-| 
|---2---2---------|---2-------2-----|-----2----1-------| 
|-----2-----------|-----------------|------------------| 
|-0-------0-------|-----------------|------------------| 
|-----------------|-2-------2-------|-0--------0-------| 
 A                   Dsus2/F#          Bsus2 
|-----------------0-|-------------0---|-----------------| 
|-1/2-----------3---|-3---3---------3-|-------2-------2-| 
|-----2---2---2-----|---2---2---2-----|-----4---4---4---| 
|-------2-----------|-----------------|---4-------4-----| 
|---0-------0-------|-----------------|-2-------2-------| 
|-------------------|-2-------2-------|-----------------| 
 E                 E               A             
|-----------------|---------2--4--|-5-----------4-0-| 
|-0---0---2---2---|-3---5---------|---2---2---2-----| 
|---2---2---2---2-|---4---4-------|-----2-----------| 
|-----------------|---------------|-----------------| 
|-----------------|---------------|-0-------0-------| 
|-0---------------|---------------|-----------------| 
 D/F#               E                 A        Asus4 
|-------------0-h2-|-4-----------2---|---------------0-| 
|-3---3------------|---5---5-------5-|-2-----------3---| 
|---2---2---2------|-----4-----4-----|---2---2---2-----| 
|------------------|-----------------|-----2-----------| 
|------------------|-----------------|-0-------0-------| 
|-2-------2--------|-0-------0-------|-----------------| 
 D        Dsus2    Bsus2             E 
|-2-----------0---|-----------------|---------------| 
|---3---3-------3-|-------2-------2-|-0---0---2---2-| 
|-----2-----2-----|-----4---4---4---|---2---2---2---| 
|-0-------0-------|---4-------4-----|---------------| 
|-----------------|-2-------2-------|---------------| 
|-----------------|-----------------|-0-------------| 
 E 
|---------------| 
|-3-----------0-| 
|-------2-1-2---| 
|-----2---------| 
|---------------| 
|---------------| 
verse 3 
 Asus2              F                     Cmaj7 
|------------------|---------------------|-------------------| 
|-0h1----------0---|-0h1-----------1h3-1-|-0-----------0h1-0-|      
|----2---2---2---2-|-----2---2---2-------|---0---0---0-------|      
|------2-----------|-------3-------------|-----2-------------|      
|-0--------0-------|---------------------|-3-------3---------|      
|------------------|-1---------1---------|-------------------|      
   
 B7       E7sus4   Asus2               F                                  
|-----------------|-------------------|---------------------|        
|-------0-------0-|-0h1-----------0---|-0h1-----------1h3-1-|        
|-2---2---2-1-2---|-----2---2---2---2-|-----2---2---2-------|        
|---1-----0-------|-------2-----------|-------3-------------|        
|-2-------2-------|-0---------0-------|---------------------|        
|---------0-------|-------------------|-1---------1---------|        
                                  Chorus 3 
 Cmaj7               B7       E7       Dm                         
|-------------------|---------------0-|-0h1-----------0---|          
|-0-----------0h1-0-|-------0---0-3---|-----3---3---3---3-|          
|---0---0---0-------|-2---2---1-------|-------2-----------|          
|-----2-------------|---1-----0-------|-0---------0-------|          
|-3-------3---------|-2-------2-------|-------------------|          
|-------------------|---------0-------|-------------------|          
 Bb                    C                   Dsus2/B  E7sus4                
|-0h1-----------1h3-1-|-0-----------0h1-0-|-------0---------|        
|---------3-----------|---1---1---1-------|-3---3---------0-|        
|-------3-------------|-----0-------------|---2-----2-1-2---|        
|-----0-------0-------|-------------------|---------0-------|        
|-1---------1---------|-3-------3---------|-2-------2-------|               
|---------------------|-------------------|---------0-------|        
                                         The last part is played 
 Asus2               F                   ?        E7sus4                  
|-------------------|-------------------|-----------------|         
|-0h1-----------0---|-0h1-----------0---|-1---0---0-------|         
|-----2---2---2---2-|-----2---2---2---2-|-------2-----2-1-|        
|-------2-----------|-------3-----------|---1-------------|         
|-0---------0-------|-------------------|-----------------|         
|-------------------|-1---------1-------|-2-------0-------| 
 slowly, but i aint sure about how many bpm 
|---------0-------|----------| 
|-------1---0-----|----------| 
|-----2-------2---|-2--------| 
|---2-----------2-|----------| 
|-0---------------|----------| 
|-----------------|----------| 
	  

Full key step upFull key step up
Half key step upHalf key step up
Half key step downHalf key step down
Full key step downFull key step down
Search Paypal
auto scroll beats size up size down change color hide chords drawings
tab show chords e-chords YouTube Clip e-chords hide all tabs e-chords go to top tab