Dz Deathrays

Reflective Skull

Dz Deathrays

tabs

by  LINEKERS

save to print version add songbook text version e-mail correct tuner
chordsukulelecavacokeyboardtabbassdrumsharmonicaflute Guitar Pro
close

there isn't a video lesson for this song

chords

Reflective Skull

	  		
Tuning: Drop D 

Intro (0:00) 

e|----------------------------------------------------------------| 
B|----------------------------------------------------------------| 
G|-------------------------------------------------6-------5------| 
D|---------------------------------------------------8-7-----8-5--| 
A|----------------------------------------------------------------| 
D|----------------------------------------------------------------| 

PostChorus 1 (0:26) 

e|----------------------------------------------------------------| 
B|----------------------------------------------------------------| 
G|-------------------------------------------------6-------5------| 
D|---------------------------------------------------8-7-----8-5--| 
A|----------------------------------------------------------------| 
D|--4---4-4-------4---44-4-4-------4---4-4------------------------| 

e|----------------------------------------------------------------| 
B|----------------------------------------------------------------| 
G|----------------------------------------------------------------| 
D|----------------------------------------------------------------| 
A|-----------------------------------------------3-5-6------------| 
D|--4---4-4-------4---44-4-4-------4---4-4--4------------3-5-6----| 

verse 1 

e|-----------------------------------------------------------------------------------| 
B|-----------------------------------------------------------------------------------| 
G|-----------------------------------------------------------------------------------| 
D|--4~--------5--6--7-----------7--8--9-----------8--9--10------9-10-11---10-11-12---| 
A|---------------------2~----------------5~-----------------8~-----------------------| 
D|-----------------------------------------------------------------------------------| 

Come in my bedroom 
And take up all of my 
All my headroom 
You know, where secrets lie 

e|-----------------------------------------------------------------------------------| 
B|-----------------------------------------------------------------------------------| 
G|-----------------------------------------------------------------------------------| 
D|--4~--------5--6--7-----------7--8--9-----------8--9--10------9-10-11---10-11-12---| 
A|---------------------2~----------------5~-----------------8~-----------------------| 
D|-----------------------------------------------------------------------------------| 

Anticipation 
I don't want to die 
Consideration 
To where your secrets lie 

PreChorus 1 (0:43) 

e|---------------------------------------------------------------------------------| 
B|---------------------------------------------------------------------------------| 
G|---------------------------------------------------------------------------------| 
D|--4-4---4-4-4-4-4-4--------------------------------------------------------------| 
A|----------------------2-2---2-2-2-2-2-2---5-5---5-5-5-5-5-5---8-8---8-8-8-8-8-8--| 
D|---------------------------------------------------------------------------------| 

She knows your secrets now 
What you gonna do? 
Watch your world unfold 
Right in front of you 

e|---------------------------------------------------------------------------------| 
B|---------------------------------------------------------------------------------| 
G|---------------------------------------------------------------------------------| 
D|--4-4---4-4-4-4-4-4--------------------------------------------------------------| 
A|----------------------2-2---2-2-2-2-2-2---5-5---5-5-5-5-5-5---8-8---8-8-8-8-8-8--| 
D|---------------------------------------------------------------------------------| 

You saw her diamond eyes 
Locking onto you 
You thought you were a ghost 
You felt so see-through 

Chorus 1 (1:00) 

e|-----------------------------------------------------------------------| 
B|------7-7-------7-7----------------------------------------------------| 
G|-----------------------------------------------------------------------| 
D|-----------------------------------------------------------------------| 
A|----------------------2-2---2-2-2-2-2-0-0-0-0-0-0-0-0-2-2-2-2-2-2-2-2--| 
D|--4-4-------4-4--------------------------------------------------------| 

Yeah, yeah 
Uh huh 
Bad dudes can't keep away from 

e|---------------------------------------------------------------------| 
B|------7-7-------7-7--------------------------------------------------| 
G|------------------------------------------------------6-------5------| 
D|--------------------------------------------------------8-7-----8-5--| 
A|----------------------2-2---2-2-2-2-2-0-0-0-0-0-0-0-0----------------| 
D|--4-4-------4-4------------------------------------------------------| 

Yeah, yeah 
Uh huh 
A dance floor and a 

PostChorus 2 (1:16)  

e|----------------------------------------------------------------| 
B|----------------------------------------------------------------| 
G|-------------------------------------------------6-------5------| 
D|---------------------------------------------------8-7-----8-5--| 
A|----------------------------------------------------------------| 
D|--4---4-4-------4---44-4-4-------4---4-4------------------------| 

Reflective skull 
Woo! 

e|----------------------------------------------------------------| 
B|----------------------------------------------------------------| 
G|----------------------------------------------------------------| 
D|----------------------------------------------------------------| 
A|-----------------------------------------------3-5-6------------| 
D|--4---4-4-------4---44-4-4-------4---4-4--4------------3-5-6----| 

Reflective skull 

verse 2 (1:32) 

e|-----------------------------------------------------------------------------------| 
B|-----------------------------------------------------------------------------------| 
G|-----------------------------------------------------------------------------------| 
D|--4~--------5--6--7-----------7--8--9-----------8--9--10------9-10-11---10-11-12---| 
A|---------------------2~----------------5~-----------------8~-----------------------| 
D|-----------------------------------------------------------------------------------| 

Jump through your bedroom 
And make sure all of my 
All my headroom 
And let your secrets fly 

e|-----------------------------------------------------------------------------------| 
B|-----------------------------------------------------------------------------------| 
G|-----------------------------------------------------------------------------------| 
D|--4~--------5--6--7-----------7--8--9-----------8--9--10------9-10-11---10-11-12---| 
A|---------------------2~----------------5~-----------------8~-----------------------| 
D|-----------------------------------------------------------------------------------| 

Total elation 
I don't want to fight 
Incineration 
Of wear your secrets lie 


PreChorus 2 (1:50) 

e|---------------------------------------------------------------------------------| 
B|---------------------------------------------------------------------------------| 
G|---------------------------------------------------------------------------------| 
D|--4-4---4-4-4-4-4-4--------------------------------------------------------------| 
A|----------------------2-2---2-2-2-2-2-2---5-5---5-5-5-5-5-5---8-8---8-8-8-8-8-8--| 
D|---------------------------------------------------------------------------------| 

She knows your secrets now 
What you gonna do? 
Watch your world unfold 
Right in front of you 

e|---------------------------------------------------------------------------------| 
B|---------------------------------------------------------------------------------| 
G|---------------------------------------------------------------------------------| 
D|--4-4---4-4-4-4-4-4--------------------------------------------------------------| 
A|----------------------2-2---2-2-2-2-2-2---5-5---5-5-5-5-5-5---8-8---8-8-8-8-8-8--| 
D|---------------------------------------------------------------------------------| 

You saw her diamond eyes 
Locking onto you 
You thought you were a ghost 
You felt so see-through 

Chorus 2 (2:06) 

e|-----------------------------------------------------------------------| 
B|------7-7-------7-7----------------------------------------------------| 
G|-----------------------------------------------------------------------| 
D|-----------------------------------------------------------------------| 
A|----------------------2-2---2-2-2-2-2-0-0-0-0-0-0-0-0-2-2-2-2-2-2-2-2--| 
D|--4-4-------4-4--------------------------------------------------------| 

Yeah, yeah 
Uh huh 
Bad dudes can't keep away from 

e|---------------------------------------------------------------------| 
B|------7-7-------7-7--------------------------------------------------| 
G|------------------------------------------------------6-------5------| 
D|--------------------------------------------------------8-7-----8-5--| 
A|----------------------2-2---2-2-2-2-2-0-0-0-0-0-0-0-0----------------| 
D|--4-4-------4-4------------------------------------------------------| 

Yeah, yeah 
Uh huh 
A dance floor and a 


PostChorus 3 (2:22) 

e|----------------------------------------------------------------| 
B|----------------------------------------------------------------| 
G|----------------------------------------------------------------| 
D|----------------------------------------------------------------| 
A|-----------------------------------------------3-5-6------------| 
D|--4---4-4-------4---44-4-4-------4---4-4--4------------3-5-6----| 

Reflective skull 
Woo! 

e|----------------------------------------------------------------| 
B|----------------------------------------------------------------| 
G|----------------------------------------------------------------| 
D|----------------------------------------------------------------| 
A|-----------------------------------------------3-5-6------------| 
D|--4---4-4-------4---44-4-4-------4---4-4--4------------3-5-6----| 

Bridge (2:39) 

e|----------------------------------------------------------------| 
B|----------------------------------------------------------------| 
G|----------------------------------------------------------------| 
D|----------------------------------------------------------------| 
A|------------4-----------5----------6-----------7----------------| 
D|--4---4-4-----4---4-4-----4---4-4-----4---4-4-------------------|  

Ooh, give your body up to her 
Reflective skull, reflective skull  

e|----------------------------------------------------------------| 
B|----------------------------------------------------------------| 
G|----------------------------------------------------------------| 
D|-----------4-----------5-----------6-----------7----------------| 
A|----------------------------------------------------------------| 
D|--4---4-4-----4---4-4-----4---4-4-----4---4-4-------------------|  

Ooh, give your body up to her 
Reflective skull, reflective skull  

e|----------------------------------------------------------------| 
B|----------------------------------------------------------------| 
G|-----------4-----------5-----------6-----------7----------------| 
D|----------------------------------------------------------------| 
A|----------------------------------------------------------------| 
D|--4---4-4-----4---4-4-----4---4-4-----4---4-4-------------------|  

Ooh, give your body up to her 
Reflective skull, reflective skull  

e|-----------------------------------------------------------19b--| 
B|----------------------------------------------------------------| 
G|------------F-E-E-D-B-A-C-K---A-N-D---D-I-S-T-O-R-T-I-O-N-------| 
D|--0~------------------------------------------------------------| 
A|--0~------------------------------------------------------------| 
D|--0~------------------------------------------------------------| 

Chorus 3 (3:12) 

e|---------------------------------------------------------------------| 
B|---------------------------------------------------------------------| 
G|------------------------------------------------------6-------5------| 
D|----------4b----------4b-----------4b-------------------8-7-----8-5--| 
A|---------------------------------------------------------------------| 
D|--4---4-4-----4---4-4------4---4-4-----------------------------------| 

Yeah, yeah 
Uh huh 
Bad dudes can't keep away from 

e|---------------------------------------------------------------------| 
B|---------------------------------------------------------------------| 
G|------------------------------------------------------6-------5------| 
D|----------4b----------4b-----------4b-------------------8-7-----8-5--| 
A|---------------------------------------------------------------------| 
D|--4---4-4-----4---4-4------4---4-4-----------------------------------| 

Yeah, yeah 
Uh huh 
A dance floor and a 


e|----------------------------------------------------------------| 
B|----------------------------------------------------------------| 
G|----------------------------------------------------------------| 
D|--4/------------------------------------------------------------| 
A|--4/------------------------------------------------------------| 
D|--4/------------------------------------------------------------| 
 
		  

See also:

tabs Dz Deathrays - Total Meltdown tabs Jerk - Blow It All Away tabs Dz Deathrays - Black Rat tabs Dz Deathrays - Dollar Chills tabs Dz Deathrays - Gina Works At Hearts tabs Jerk - Rise
e-chords

Other versions:

tabs Dz Deathrays - Reflective Skull
auto scroll beats size up size down change color hide chords drawings
tab show chords e-chords YouTube Clip e-chords hide all tabs e-chords go to top tab

share