Dz Deathrays

Blood On My Leather

Dz Deathrays

tabs

by  ALEFFEDERICO

save to print version add songbook text version e-mail correct tuner
chordsukulelecavacokeyboardtabbassdrumsharmonicaflute Guitar Pro
close

there isn't a video lesson for this song

chords

Blood On My Leather

	  		
Intro  


verse 1 

e|---------------------------------------------------------------------------| 
B|---------------------------------------------------------------------------| 
G|--------------------------------------------9-7p0h7------------------------| 
D|------------9-7-------------9-7---7-7-7-7-7---------7----------------------| 
A|--7-7-7-7-7-----8-7-7-7-7-7-----8---------------------7-7-7-7-7------------| 
D|----------------------------------------------------------------0-2-3------| x3 

e|---------------------------------------------------------------------------| 
B|---------------------------------------------------------------------------| 
G|--------------------------------------------9-7p0h7------------------------| 
D|------------9-7-------------9-7---7-7-7-7-7---------7----------------------| 
A|--7-7-7-7-7-----8-7-7-7-7-7-----8---------------------7-7-7-7-7------------| 
D|----------------------------------------------------------------0----------| 


Chorus 1 

Guitar 1 

e|---------------------------------------------------------------------------| 
B|------12b--10b----------------------------12b--10b-------------------------| 
G|--9b------------12b-------------------9b------------12b--------------------| 
D|---------------------9b------9b--------------------------9b------12b-------| 
A|---------------------------------------------------------------------------| 
D|---------------------------------------------------------------------------| 

Guitar 2 

e|---------------------------------------------------------------------------| 
B|---------------------------------------------------------------------------| 
G|---------------------------------------------------------------------------| 
D|--2-2-2-2-2--0--5-5-5-5-5--2--2-2-2-2-2--0--5-5-5-5-5--2-------------------| 
A|--2-2-2-2-2--0--5-5-5-5-5--2--2-2-2-2-2--0--5-5-5-5-5--2-------------------| 
D|--2-2-2-2-2--0--5-5-5-5-5--2--2-2-2-2-2--0--5-5-5-5-5--2-------------------| 

e|---------------------------------------------------------------------------| 
B|---------------------------------------------------------------------------| 
G|---------------------------------------------------------------------------| 
D|--2-2-2-2-2--0--5-5-5-5-5--2--9-9-9-9-9--12--9-9-9-9-9--12-----------------| 
A|--2-2-2-2-2--0--5-5-5-5-5--2--9-9-9-9-9--12--9-9-9-9-9--12-----------------| 
D|--2-2-2-2-2--0--5-5-5-5-5--2--9-9-9-9-9--12--9-9-9-9-9--12-----------------| 



verse 2 

e|---------------------------------------------------------------------------| 
B|---------------------------------------------------------------------------| 
G|--------------------------------------------9-7p0h7------------------------| 
D|------------9-7-------------9-7---7-7-7-7-7---------7----------------------| 
A|--7-7-7-7-7-----8-7-7-7-7-7-----8---------------------7-7-7-7-7------------| 
D|----------------------------------------------------------------0-2-3------| x3 

e|---------------------------------------------------------------------------| 
B|---------------------------------------------------------------------------| 
G|--------------------------------------------9-7p0h7------------------------| 
D|------------9-7-------------9-7---7-7-7-7-7---------7----------------------| 
A|--7-7-7-7-7-----8-7-7-7-7-7-----8---------------------7-7-7-7-7------------| 
D|----------------------------------------------------------------0----------| 

Guitar 2 

e|---------------------------------------------------------------------------| 
B|---------------------------------------------------------------------------| 
G|----~-----------------------------------------------9b---------------------| 
D|---------------------9b----------------------------------------------------| 
A|---------------------------------------------------------------------------| 
D|---------------------------------------------------------------------------| 


Chorus 2 

Guitar 1 

e|---------------------------------------------------------------------------| 
B|------12b--10b----------------------------12b--10b-------------------------| 
G|--9b------------12b-------------------9b------------12b--------------------| 
D|---------------------9b------9b--------------------------9b------12b-------| 
A|---------------------------------------------------------------------------| 
D|---------------------------------------------------------------------------|x2 

Guitar 2 

e|---------------------------------------------------------------------------| 
B|---------------------------------------------------------------------------| 
G|---------------------------------------------------------------------------| 
D|--2-2-2-2-2--0--5-5-5-5-5--2--2-2-2-2-2--0--5-5-5-5-5--2-------------------| 
A|--2-2-2-2-2--0--5-5-5-5-5--2--2-2-2-2-2--0--5-5-5-5-5--2-------------------| 
D|--2-2-2-2-2--0--5-5-5-5-5--2--2-2-2-2-2--0--5-5-5-5-5--2-------------------| 

e|---------------------------------------------------------------------------| 
B|---------------------------------------------------------------------------| 
G|---------------------------------------------------------------------------| 
D|--2-2-2-2-2--0--5-5-5-5-5--2--9-9-9-9-9--12--9-9-9-9-9--12-----------------| 
A|--2-2-2-2-2--0--5-5-5-5-5--2--9-9-9-9-9--12--9-9-9-9-9--12-----------------| 
D|--2-2-2-2-2--0--5-5-5-5-5--2--9-9-9-9-9--12--9-9-9-9-9--12-----------------| 

(Whole thing x2) 


Bridge 

Guitar 1 (Solo) 

e|---------------------------------------------------------------------------| 
B|---------------------------------------------------------------------------| 
G|---------------------------------------------------------------------------| 
D|---------------------------------------------------------------------------| 
A|----------------------------------1-1-1-2-2-3-3-3-4-4-4-5-5-6-6-6----------| 
D|--2-2-2-3-3-4-4-4-5-5-5-6-6-7-7-7------------------------------------------| 

e|---------------------------------------------------------------------------| 
B|---------------------------------------------------------------------------| 
G|----------------------------------3-3-3-4-4-5-5-5-6-6-6-7-7-8-8-8-9b~------| 
D|--2-2-2-3-3-4-4-4-5-5-5-6-6-7-7-7------------------------------------------| 
A|---------------------------------------------------------------------------| 
D|---------------------------------------------------------------------------| 

Guitar 1 

AAAAAAAAAAAAAAAHHHHHHHHHHHHHHHHHHH 

e|---------------------------------------------------------------------------| 
B|---------------------------------------------------------------------------| 
G|---------------------------------------------------------------------------| 
D|--2-------------------------------2----------------------------------------| 
A|--2-------------------------------2----------------------------------------| 
D|--2-------------------------------2----------------------------------------|x2 

Guitar 2 

e|---------------------------------------------------------------------------| 
B|---------------------------------------------------------------------------| 
G|---------------------------------9/13--------------------------------------| 
D|---------------------------------------------------------------------------| 
A|---------------------------------------------------------------------------| 
D|---------------------------------------------------------------------------|x2 

Guitar 1 (Solo) 

It's in your town and it's in the streets 
Can't keep the peace so up the beat... 


e|------------------------------------------------------------------------------| 
B|------------------------------------------------------------------------------| 
G|------------------------------------------------------------------------------| 
D|------------------------------------------------------------------------------| 
A|--7-7-7-7-7-------------------------------------------------------------------| 
D|------------9-9-9-5---5-5-5-5-7-7-7-9---9-9-9-9-9-9-5-5-5-2---2-2-2-2-2-2-2---| 

e|------------------------------------------------------------------------------| 
B|------------------------------------------------------------------------------| 
G|------------------------------------------------------------------------------| 
D|------------------------------------------------------------------------------| 
A|--7-7-7-7-7-------------------------------------------------------------------| 
D|------------9-9-9-5---5-5-5-5-7-7-7-9---9-9-9-9-9-9-5-5-5-2-------------------| 


Chorus 3 

Guitar 1 

e|---------------------------------------------------------------------------| 
B|------12b--10b----------------------------12b--10b-------------------------| 
G|--9b------------12b-------------------9b------------12b--------------------| 
D|---------------------9b------9b--------------------------9b------12b-------| 
A|---------------------------------------------------------------------------| 
D|---------------------------------------------------------------------------|x2 

Guitar 2 

e|---------------------------------------------------------------------------| 
B|---------------------------------------------------------------------------| 
G|---------------------------------------------------------------------------| 
D|--2-2-2-2-2--0--5-5-5-5-5--2--2-2-2-2-2--0--5-5-5-5-5--2-------------------| 
A|--2-2-2-2-2--0--5-5-5-5-5--2--2-2-2-2-2--0--5-5-5-5-5--2-------------------| 
D|--2-2-2-2-2--0--5-5-5-5-5--2--2-2-2-2-2--0--5-5-5-5-5--2-------------------| 

e|---------------------------------------------------------------------------| 
B|---------------------------------------------------------------------------| 
G|---------------------------------------------------------------------------| 
D|--2-2-2-2-2--0--5-5-5-5-5--2--9-9-9-9-9--12--9-9-9-9-9--12-----------------| 
A|--2-2-2-2-2--0--5-5-5-5-5--2--9-9-9-9-9--12--9-9-9-9-9--12-----------------| 
D|--2-2-2-2-2--0--5-5-5-5-5--2--9-9-9-9-9--12--9-9-9-9-9--12-----------------| 

(Whole thing x2) 


Outro 

Guitar 1 

e|---------------------------------------------------------------------------| 
B|---------------------------------------------------------------------------| 
G|--------------------------------------------9-7p0h7------------------------| 
D|------------9-7-------------9-7---7-7-7-7-7---------7----------------------| 
A|--7-7-7-7-7-----8-7-7-7-7-7-----8---------------------7---7-7-7-7-7-7------| 
D|---------------------------------------------------------------------------|x2 

e|---------------------------------------------------------------------------| 
B|---------------------------------------------------------------------------| 
G|---------------------------------------------------------------------------| 
D|--2------------------------------------------------------------------------| 
A|--2------------------------------------------------------------------------| 
D|--2------------------------------------------------------------------------| 

Guitar 2 

e|---------------------------------------------------------------------------| 
B|---------------------------------------------------------------------------| 
G|--9b-----------------------------------------------------------------------| 
D|--------------------------------7b-----------------------------------------| 
A|---------------------------------------------------------------------------| 
D|---------------------------------------------------------------------------|x2 




************************************ 
| h   Hammer-on 
| p   Pull-off 
| b   Bend 
| /   Slide up 
************************************ 
		  

See also:

tabs Dz Deathrays - Total Meltdown tabs Jerk - Blow It All Away tabs Dz Deathrays - Black Rat tabs Dz Deathrays - Dollar Chills tabs Dz Deathrays - Gina Works At Hearts tabs Jerk - Rise
e-chords

Other versions:

tabs Dz Deathrays - Blood On My Leather
auto scroll beats size up size down change color hide chords drawings
tab show chords e-chords YouTube Clip e-chords hide all tabs e-chords go to top tab

share