Dz Deathrays

Black Rat

Dz Deathrays

tabs

by  BRUNBLAZKOWSKI

save to print version add songbook text version e-mail correct tuner
chordsukulelecavacokeyboardtabbassdrumsharmonicaflute Guitar Pro
close

there isn't a video lesson for this song

chords

Black Rat

	  		Tuning: Drop D 

Verse 

e|----------------------------------------------------------------| 
B|-----------------------10-10-----10-----------------------------| 
G|-------------------7777------7777-------------------------------| 
D|----------------------------------------------------------------| 
A|--6---8---0-5---------------------------------------------------| 
D|----------------------------------------------------------------|x4 

Running through the streets to the black hole pubs 
I'm a black rat with a crawlspace love 
My body still hangs over every bar 
Trapped inside my last rat hole 

PreChorus 

e|---------------------------------------------------| 
B|---------------------------------------------------| 
G|-----------------8-8-------------------------------| 
D|-------8-8-----------------8-8-------7-7-----------| 
A|---------------------------------------------------| 
D|---8-8-------8-8-------8-8-------8-8---------------| 

Why leave it too long? 

e|-----------------5-5-------6-6-------5-5-----------| 
B|-------8--8----------------------------------------| 
G|---------------------------------------------------| 
D|---------------------------------------------------| 
A|---------------------------------------------------| 
D|---5-5-------5-5-------5-5-------5-5---------------| 

e|---------------------------------------------------| 
B|---------------------------------------------------| 
G|-----------------8-8-------------------------------| 
D|-------8-8-----------------8-8-------7-7-----------| 
A|---------------------------------------------------| 
D|---8-8-------8-8-------8-8-------8-8---------------| 

It could never go wrong 

e|-----------------5-5-------6-6-------131313131512--| 
B|-------8--8----------------------------------------| 
G|---------------------------------------------------| 
D|---------------------------------------------------| 
A|---------------------------------------------------| 
D|---5-5-------5-5-------5-5-------------------------| 


Chorus 

e|--------------------------------------| 
B|--------------------------------------| 
G|------7-8-------------8-7-------------| 
D|--------------3-5-------------7-7-----| 
A|--5-5-----6-6-------------------------| 
D|------------------8-8-----8-8---------|x2 

Time is best spent 
Being wasted on 
Laughter calling 
Homesick for a haunted home 

e|----------------------------------------| 
B|----------------------------------------| 
G|----------------------------------------| 
D|----------------------------------------| 
A|--5-5-5-5-6-6------------6-------6------| 
D|--------------10-10-8-88----8-88--------|x2 

I've been, I've been here way too long 
I've been, I've been here way too long 


Verse 

e|----------------------------------------------------------------| 
B|-----------------------10-10-----10-----------------------------| 
G|-------------------7777------7777-------------------------------| 
D|----------------------------------------------------------------| 
A|--6---8---0-5---------------------------------------------------| 
D|----------------------------------------------------------------|x4 

Falling through the cracks of the city I love 
Looking for someone a century ago 
Hoped that it would be 'till death do us part 
Ended up being dead from the start 

PreChorus 

e|---------------------------------------------------| 
B|---------------------------------------------------| 
G|-----------------8-8-------------------------------| 
D|-------8-8-----------------8-8-------7-7-----------| 
A|---------------------------------------------------| 
D|---8-8-------8-8-------8-8-------8-8---------------| 

Why leave it too long? 

e|-----------------5-5-------6-6-------5-5-----------| 
B|-------8--8----------------------------------------| 
G|---------------------------------------------------| 
D|---------------------------------------------------| 
A|---------------------------------------------------| 
D|---5-5-------5-5-------5-5-------5-5---------------| 


e|---------------------------------------------------| 
B|---------------------------------------------------| 
G|-----------------8-8-------------------------------| 
D|-------8-8-----------------8-8-------7-7-----------| 
A|---------------------------------------------------| 
D|---8-8-------8-8-------8-8-------8-8---------------| 

It could never go wrong 

e|-----------------5-5-------6-6-------131313131512--| 
B|-------8--8----------------------------------------| 
G|---------------------------------------------------| 
D|---------------------------------------------------| 
A|---------------------------------------------------| 
D|---5-5-------5-5-------5-5-------------------------| 

Chorus 

e|--------------------------------------| 
B|--------------------------------------| 
G|------7-8-------------8-7-------------| 
D|--------------3-5-------------7-7-----| 
A|--5-5-----6-6-------------------------| 
D|------------------8-8-----8-8---------|x2 

Time is best spent 
Being wasted on 
Laughter calling 
Homesick for a haunted home 

e|----------------------------------------| 
B|----------------------------------------| 
G|----------------------------------------| 
D|----------------------------------------| 
A|--5-5-5-5-6-6------------6-------6------| 
D|--------------10-10-8-88----8-88--------|x2 

I've been, I've been here way too long 
I've been, I've been here way too long 

Bridge 

e|-------------------------------------------------------------------| 
B|-------------------------------------------------------------------| 
G|--8-8-8-8-8-8-8-8-8-8-8-8-8-8-8-8-8-8-8-8-8-8-8-8-8-8-8-8-8-8-8-8--| 
D|-------------------------------------------------------------------| 
A|--6-6-6-6-6-6-6-6-6-6-6-6-6-6-6-6-6-6-6-6-6-6-6-6-6-6-6-6-6-6-6-6--| 
D|-------------------------------------------------------------------| (acoustic) 

e|-------------------------------------------------------------111111111010~-| 
B|---------------------------------------8b------10b------11b----------------| 
G|--8-------8-------8-----------------8-------8-------8----------------------| 
D|---------------------------------------------------------------------------| 
A|--6-------6-------6-----------5-----6-------6-------6----------------------| 
D|--------------------------8888--7------------------------------------------| 

PreChorus 

e|---------------------------------------------------| 
B|---------------------------------------------------| 
G|-----------------8-8-------------------------------| 
D|-------8-8-----------------8-8-------7-7-----------| 
A|---------------------------------------------------| 
D|---8-8-------8-8-------8-8-------8-8---------------| 

Why leave it too long? 

e|-----------------5-5-------6-6-------5-5-----------| 
B|-------8--8----------------------------------------| 
G|---------------------------------------------------| 
D|---------------------------------------------------| 
A|---------------------------------------------------| 
D|---5-5-------5-5-------5-5-------5-5---------------| 


e|---------------------------------------------------| 
B|---------------------------------------------------| 
G|-----------------8-8-------------------------------| 
D|-------8-8-----------------8-8-------7-7-----------| 
A|---------------------------------------------------| 
D|---8-8-------8-8-------8-8-------8-8---------------| 

It could never go wrong 

e|-----------------5-5-------6-6-------131313131512--| 
B|-------8--8----------------------------------------| 
G|---------------------------------------------------| 
D|---------------------------------------------------| 
A|---------------------------------------------------| 
D|---5-5-------5-5-------5-5-------------------------| 

Chorus 

e|--------------------------------------| 
B|--------------------------------------| 
G|------7-8-------------8-7-------------| 
D|--------------3-5-------------7-7-----| 
A|--5-5-----6-6-------------------------| 
D|------------------8-8-----8-8---------|x2 

Time is best spent 
Being wasted on 
Laughter calling 
Homesick for a haunted home 

e|----------------------------------------| 
B|----------------------------------------| 
G|----------------------------------------| 
D|----------------------------------------| 
A|--5-5-5-5-6-6------------6-------6------| 
D|--------------10-10-8-88----8-88--------|x4  

I've been, I've been here way too long 
I've been, I've been here way too long 

Outro 

e|----------------------------------------------------------------| 
B|-----------------------10-10-----10-----------------------------| 
G|-------------------7777------7777-------------------------------| 
D|----------------------------------------------------------------| 
A|--6---8---0-5-------------------------6---8---0-5---8-----------| 
D|----------------------------------------------------------------| 

I'm a black rat with a crawlspace love 
Yeah  
		  

See also:

tabs Dz Deathrays - Total Meltdown tabs Jerk - Blow It All Away tabs Dz Deathrays - Black Rat tabs Dz Deathrays - Dollar Chills tabs Dz Deathrays - Gina Works At Hearts tabs Jerk - Rise
e-chords

Other versions:

tabs Dz Deathrays - Black Rat
auto scroll beats size up size down change color hide chords drawings
tab show chords e-chords YouTube Clip e-chords hide all tabs e-chords go to top tab

share