Dz Deathrays

home > Dz Deathrays

Total Meltdown Tab

Dz Deathrays

Difficulty: nolevelnolevel

by sabrjoao

tuner correct add songbook print version text version save to e-mail
chordsukulelecavacokeyboardtabbassdrumsharmonicsflute Guitar Pro
chords

Total Meltdown

	  Intro 
Rhythm  
E|------------------------------------| 
B|------------------------------------| 
G|------------------------------------|    X 2 
D|--0-0-0-4-4-9-9~---7-7-7-7-7-7~-----| 
A|--0-0-0-4-4-9-9~---7-7-7-7-7-7~-----| 
D|--0-0-0-4-4-9-9~---7-7-7-7-7-7~-----| 

Lead(Not 100% accurate) 
E|--------------------------------------------------------------------------------------------| 
B|--------------------------------------------------------------------------------------------| 
G|--11-11-11-11-11-11-11--11-11-11-11-11-9-9~--11-11-11-11-11-11-11-11-11-11-11-11-11-9-9~----| 
D|--7--7--7--7--7--7--7/9-9--9--9--9--9--9-9~--11-11-11-11-11-11-11-11-9--9--9--9--9--9-9~----| 
A|--------------------------------------------------------------------------------------------| 
D|--------------------------------------------------------------------------------------------| 

Rhythm  
E|----------------------------------------------------------------------| 
B|----------------------------------------------------------------------| 
G|----------------------------------------------------------------------|    X 1 
D|--12--12-12-12-12--9-9-9-9-9-9-9-9--4--4-4-4-4--7--7-7-7-7-7-7-7------|  
A|--12--12-12-12-12--9-9-9-9-9-9-9-9--4--4-4-4-4--7--7-7-7-7-7-7-7------|  
D|--12--12-12-12-12--9-9-9-9-9-9-9-9--4--4-4-4-4--7--7-7-7-7-7-7-7------| 

Lead 
E|----------------------------------------------------------------------| 
B|----------------------------------------------------10~----10~--------| 
G|---------9---11---9------------------------9---11-------11~----11~----| 
D|--12--------------------12--9~------12--------------------------------| 
A|----------------------------------------------------------------------| 
D|----------------------------------------------------------------------| 

Verse 
Rhythm 
E|----------------------------------------------------------| 
B|----------------------------------------------------------| 
G|--7-*-11-*-4-4~---------------------6-*-------------------|    X 4 
D|--7-*-11-*-4-4~---------------------6-*-------------------| 
A|--5-*-9--*-2-2~--4-4-3-3-2-2~---0-*-4-*-6-7~---2-2/4-4~---| 
D|-----------------4-4-3-3-2-2~---0-*-----6-7~---2-2/4-4~---| 

Lead(Come in after 2 x verse) - Feedback sounds 
E|----------------------------------------------------------| 
B|----------------------------------------------------------| 
G|-----------------------------(11)~------------------------|         
D|-----(4)~-------------------------------------------------| 
A|----------------------------------------------------------| 
D|----------------------------------------------------------| 

E|----------------------------------------------------------| 
B|----------------------------------------------------------| 
G|-----------------------------(11^)~-----------------------|        
D|-----(0)~-------------------------------------------------| 
A|-----(0)~-------------------------------------------------| 
D|-----(0)~-------------------------------------------------| 

Chorus 
Rhythm  
E|------------------------------------| 
B|------------------------------------| 
G|------------------------------------|    X 2 
D|--0-0-0-4-4-9-9~---7-7-7-7-7-7~-----| 
A|--0-0-0-4-4-9-9~---7-7-7-7-7-7~-----| 
D|--0-0-0-4-4-9-9~---7-7-7-7-7-7~-----| 

Lead(Not 100% accurate) 
E|--------------------------------------------------------------------------------------------| 
B|--------------------------------------------------------------------------------------------| 
G|--11-11-11-11-11-11-11--11-11-11-11-11-9-9~--11-11-11-11-11-11-11-11-11-11-11-11-11-9-9~----| 
D|--7--7--7--7--7--7--7/9-9--9--9--9--9--9-9~--11-11-11-11-11-11-11-11-9--9--9--9--9--9-9~----| 
A|--------------------------------------------------------------------------------------------| 
D|--------------------------------------------------------------------------------------------| 

Rhythm  
E|----------------------------------------------------------------------| 
B|----------------------------------------------------------------------| 
G|----------------------------------------------------------------------|    X 1 
D|--12--12-12-12-12--9-9-9-9-9-9-9-9--4--4-4-4-4--7--7-7-7-7-7-7-7------|  
A|--12--12-12-12-12--9-9-9-9-9-9-9-9--4--4-4-4-4--7--7-7-7-7-7-7-7------|  
D|--12--12-12-12-12--9-9-9-9-9-9-9-9--4--4-4-4-4--7--7-7-7-7-7-7-7------| 

Lead 
E|----------------------------------------------------------------------| 
B|----------------------------------------------------10~----10~--------| 
G|---------9---11---9------------------------9---11-------11~----11~----| 
D|--12--------------------12--9~------12--------------------------------| 
A|----------------------------------------------------------------------| 
D|----------------------------------------------------------------------| 

Verse 
Rhythm 
E|----------------------------------------------------------| 
B|----------------------------------------------------------| 
G|--7-*-11-*-4-4~---------------------6-*-------------------|    X 4 
D|--7-*-11-*-4-4~---------------------6-*-------------------| 
A|--5-*-9--*-2-2~--4-4-3-3-2-2~---0-*-4-*-6-7~---2-2/4-4~---| 
D|-----------------4-4-3-3-2-2~---0-*-----6-7~---2-2/4-4~---| 

Lead(Come in after 2 x verse) - Feedback sounds 
E|----------------------------------------------------------| 
B|----------------------------------------------------------| 
G|-----------------------------(11)~------------------------|         
D|-----(4)~-------------------------------------------------| 
A|----------------------------------------------------------| 
D|----------------------------------------------------------| 

E|----------------------------------------------------------| 
B|----------------------------------------------------------| 
G|-----------------------------(11^)~-----------------------|        
D|-----(0)~-------------------------------------------------| 
A|-----(0)~-------------------------------------------------| 
D|-----(0)~-------------------------------------------------| 

Chorus 
Rhythm  
E|------------------------------------| 
B|------------------------------------| 
G|------------------------------------|    X 2 
D|--0-0-0-4-4-9-9~---7-7-7-7-7-7~-----| 
A|--0-0-0-4-4-9-9~---7-7-7-7-7-7~-----| 
D|--0-0-0-4-4-9-9~---7-7-7-7-7-7~-----| 

Lead(Not 100% accurate) 
E|--------------------------------------------------------------------------------------------| 
B|--------------------------------------------------------------------------------------------| 
G|--11-11-11-11-11-11-11--11-11-11-11-11-9-9~--11-11-11-11-11-11-11-11-11-11-11-11-11-9-9~----| 
D|--7--7--7--7--7--7--7/9-9--9--9--9--9--9-9~--11-11-11-11-11-11-11-11-9--9--9--9--9--9-9~----| 
A|--------------------------------------------------------------------------------------------| 
D|--------------------------------------------------------------------------------------------| 

Rhythm  
E|----------------------------------------------------------------------| 
B|----------------------------------------------------------------------| 
G|----------------------------------------------------------------------|    X 1 
D|--12--12-12-12-12--9-9-9-9-9-9-9-9--4--4-4-4-4--7--7-7-7-7-7-7-7------|  
A|--12--12-12-12-12--9-9-9-9-9-9-9-9--4--4-4-4-4--7--7-7-7-7-7-7-7------|  
D|--12--12-12-12-12--9-9-9-9-9-9-9-9--4--4-4-4-4--7--7-7-7-7-7-7-7------| 

Lead 
E|----------------------------------------------------------------------| 
B|----------------------------------------------------10~----10~--------| 
G|---------9---11---9------------------------9---11-------11~----11~----| 
D|--12--------------------12--9~------12--------------------------------| 
A|----------------------------------------------------------------------| 
D|----------------------------------------------------------------------| 

Lead(Not 100% accurate) 
E|----------------------------------------------------------------------| 
B|----------------------------------------------------------------------| 
G|--6-6-6-6-7-7-7-7-9-9-9-9-9-9-9-9-6-6-6-6-7-7-7-7-4-4-4-4-4-4-4-4-----| 
D|--7-7-7-7-7-7-7-7-7-7-7-7-7-7-7-7-7-7-7-7-7-7-7-7-7-7-7-7-7-7-7-7-----| 
A|----------------------------------------------------------------------| 
D|----------------------------------------------------------------------| 

E|----------------------------------------------------------------------| 
B|----------------------------------------------------------------------| 
G|---------------------------------------------------9--11--9-----------| 
D|----------------7--9-----------------------------------------12~------| 
A|--9--9-9-9-9-9--------7--9~---------9--9-9-9-9-9----------------------| 
D|----------------------------------------------------------------------| 

Solo  
Rhythm 
E|----------------------------------------------------------| 
B|----------------------------------------------------------| 
G|----------4-4~---------------------6-6--------------------|    
D|--0~-4-4--4-4~-----------------0---6-6--------------------| 
A|--0~-4-4--2-2~--4-4-3-3-2-2~---0~--4-4--6-7~---2-2/4-4~---| 
D|--0~-4-4--------4-4-3-3-2-2~---0~-------6-7~---2-2/4-4~---| 

Lead(Not 100% accurate) 
E|------------------------------------------------------------------------------------------------| 
B|--7--7--7--7--7--7--7--7---7p5------------------7--7--7--7--7--7--7--7---7---5-------5----------| 
G|--9^-9^-9^-9^-9^-9^-9^-9^------7-4-7---4--7--9--9^-9^-9^-9^-9^-9^-9^-9^----------7--------0~----| 
D|------------------------------------------------------------------------------------------------| 
A|------------------------------------------------------------------------------------------------| 
D|------------------------------------------------------------------------------------------------| 

Rhythm 
E|----------------------------------------------------------| 
B|----------------------------------------------------------| 
G|----------4-4~---------------------6-6--------------------|    
D|--0~-4-4--4-4~-----------------0---6-6--------------------| 
A|--0~-4-4--2-2~--4-4-3-3-2-2~---0~--4-4--6-7~---2-2/4-4~---| 
D|--0~-4-4--------4-4-3-3-2-2~---0~-------6-7~---2-2/4-4~---| 

Lead(Not 100% accurate) 
E|--9-9-9----------12-12-12-0-0-0-10-10-10-0-0-0-9-9-9-0-0-0------------------------------------------| 
B|--------10-10-10--------------------------------------------12-10----10^12^10---------7--7----------| 
G|------------------------------------------------------------------11-----------11~--9----9^11^9-----| 
D|-------------------------------------------------------------------------------------------------7~-| 
A|----------------------------------------------------------------------------------------------------| 
D|----------------------------------------------------------------------------------------------------| 

Bridge 
Rhythm 
E|----------------------------------------------------------------------| 
B|----------------------------------------------------------------------| 
G|----------------------------------------------------------------------| 
D|--7-7-7-7-7-7-7-7-11-11~--4--4-4-4--5-5-5-5-5-5-5-5-11-11~--3--3-3-3--| 
A|--7-7-7-7-7-7-7-7-11-11~--4--4-4-4--5-5-5-5-5-5-5-5-11-11~--3--3-3-3--| 
D|--7-7-7-7-7-7-7-7-11-11~--4--4-4-4--5-5-5-5-5-5-5-5-11-11~--3--3-3-3--| 

E|--------------------------------------------------| 
B|--------------------------------------------------| 
G|--------------------------------------------------| 
D|--------------------------------------------------| 
A|--------------------------------------------------| 
D|--11-11-10-10-9-9-9-----11-11-10-10-9-9-9---------| 

Chorus 
Rhythm  
E|------------------------------------| 
B|------------------------------------| 
G|------------------------------------|    X 2 
D|--0-0-0-4-4-9-9~---7-7-7-7-7-7~-----| 
A|--0-0-0-4-4-9-9~---7-7-7-7-7-7~-----| 
D|--0-0-0-4-4-9-9~---7-7-7-7-7-7~-----| 

Lead(Not 100% accurate) 
E|--------------------------------------------------------------------------------------------| 
B|--------------------------------------------------------------------------------------------| 
G|--11-11-11-11-11-11-11--11-11-11-11-11-9-9~--11-11-11-11-11-11-11-11-11-11-11-11-11-9-9~----| 
D|--7--7--7--7--7--7--7/9-9--9--9--9--9--9-9~--11-11-11-11-11-11-11-11-9--9--9--9--9--9-9~----| 
A|--------------------------------------------------------------------------------------------| 
D|--------------------------------------------------------------------------------------------| 

Rhythm  
E|----------------------------------------------------------------------| 
B|----------------------------------------------------------------------| 
G|----------------------------------------------------------------------|    X 1 
D|--12--12-12-12-12--9-9-9-9-9-9-9-9--4--4-4-4-4--7--7-7-7-7-7-7-7------|  
A|--12--12-12-12-12--9-9-9-9-9-9-9-9--4--4-4-4-4--7--7-7-7-7-7-7-7------|  
D|--12--12-12-12-12--9-9-9-9-9-9-9-9--4--4-4-4-4--7--7-7-7-7-7-7-7------| 

Lead 
E|----------------------------------------------------------------------| 
B|----------------------------------------------------10~----10~--------| 
G|---------9---11---9------------------------9---11-------11~----11~----| 
D|--12--------------------12--9~------12--------------------------------| 
A|----------------------------------------------------------------------| 
D|----------------------------------------------------------------------| 

Outro  
Rhythm 
E|---------------------------------------------------------------| 
B|---------------------------------------------------------------| 
G|--7-7-7-11-11-4-4~----------------------6-6--------------------|    
D|--7-7-7-11-11-4-4~----------------------6-6--------------------| 
A|--5-5-5-9--9--2-2~-4-4-3-3-2-2~---0-0-0-4-4-6-7~---2-2/4-4-4-4-| 
D|-------------------4-4-3-3-2-2~---0-0-0-----6-7~---2-2/4-4-4-4-| 

Lead(Not 100% accurate) - Slowly bend B string  
E|--10-10-10-10-10-10-10-10-10-10-10-10-10-10-10-10-10-10-10-10-10-10-10-10-10-10-10-10---------------| 
B|--10-10-10-10-10-10-10-10-10-10-10-10-10-10-10-10-10-10-10-10-10-10-10-10-10-10-10-10-10^-10^-10^---| 
G|----------------------------------------------------------------------------------------------------| 
D|----------------------------------------------------------------------------------------------------| 
A|----------------------------------------------------------------------------------------------------| 
D|----------------------------------------------------------------------------------------------------| 



************************************ 

| ~  Let ring 
| /  Slide up 
| *   
Ghost note/dead note 
| p  Pull-off 
| ^   
Bend 
| h  Hammer on 

************************************ 
	  

there isn't a video lesson for this song

request
Full key step upFull key step up
Half key step upHalf key step up
Half key step downHalf key step down
Full key step downFull key step down
Search
auto scroll beats size up size down change color hide chords drawings
tab show chords e-chords YouTube Clip e-chords hide all tabs e-chords go to top tab