Dz Deathrays

Gina Works At Hearts

Dz Deathrays

tabs

by  SABRJOAO

save to print version add songbook text version e-mail correct tuner
chordsukulelecavacokeyboardtabbassdrumsharmonicaflute Guitar Pro
close

there isn't a video lesson for this song

chords

Gina Works At Hearts

	  		 

Intro/Verse 

e|--------------------------------------------------------------------------------| 
B|--------------------------------------------------------------------------------| 
G|--------------------------------------------------------------------------------| 
D|--------------------------------------------------------------------------------| 
A|--------------------------------------------------------------------------------| 
E|---5--0--5--0--8--0--2-2---0--12--12--12----------------------------------------| 

Pre Chorus 

strum the chords 
e|---------------------------------------------------------------------------| 
B|--------------------------------------13-----------------------------------| 
G|--13------------------10--------------12-----------------------------------| 
D|--13------------------12--------------12-----------------------------------| 
A|--11------------------12---(x8)-------10---(x16)---------------------------| 
E|--11---(x8)----------------------------------------------------------------| 


Chorus - Rhythm 


e|---------------------------------------------------------------------------| 
B|---------------------------------------------------------------------------| 
G|---------------------------------------------------------------------------| 
D|-----8-------------12-----------------5------------------------------------| 
A|-----8-------------12-----------------5------------------------------------| 
E|-----8---(x8)------12-----(x8)--------5-----(x16)--------------------------| 

Chorus - Lead 

e|---------------------------------------------------------------------------| 
B|---10----10------13------10------------------------------------------------| 
G|----------------------------------10------10---------7--------10-----------| 
D|---------------------------------------------------------------------------| 
A|---------------------------------------------------------------------------| 
E|---------------------------------------------------------------------------| 


Bridge part 1 

"and the power of love..." 
e|---------------------------------------------------------------------------| 
B|---------------------------------------------------------------------------| 
G|--17--------19--------14--------16-----------------------------------------| 
D|--15--------17--------12--------14-----------------------------------------| 
A|--15--------17--------12--------14-----------------------------------------| 
E|--15-(x8)---17-(x8)---12-(x8)---14-(x8)------------------------------------| 


Bridge Part 2 


e|---------------------------------------------------------------------------| 
B|---------------------------------------------------------------------------| 
G|-----------------------------------------------10--------------------------| 
D|---8-8-8---12----8-8---12--8-8-8-8-8---10--12------------------------------| 
A|---8-8-8---------8-8-------8-8-8-8-8---------------------------------------| 
E|---8-8-8---------8-8-------8-8-8-8-8---------------------------------------| 

e|---------------------------------------------------------------------------| 
B|---------------------------------------------------------------------------| 
G|---------------------------------------------------------------------------| 
D|--5-5-5--8--5-5--8--5-5-5-5-5--8--10--8------------------------------------| 
A|--5-5-5-----5-5-----5-5-5-5-5----------------------------------------------| 
E|--5-5-5-----5-5-----5-5-5-5-5----------------------------------------------| 

Outro - Lead 

Rhythm Guitar plays Chorus 

e|---------------------------------------------------------------------------| 
B|----10---10---10---13-10---10---10---11-10---10---10---11-10---10----10----| 
G|---------------------------------------------------------------------------| 
D|---------------------------------------------------------------------------| 
A|---------------------------------------------------------------------------| 
E|---------------------------------------------------------------------------| 

e|----10---10---10---13-10---10---10---11-10---10---10---11-10---10----10----| 
B|---------------------------------------------------------------------------| 
G|---------------------------------------------------------------------------| 
D|---------------------------------------------------------------------------| 
A|---------------------------------------------------------------------------| 
E|---------------------------------------------------------------------------| 

************************************ 

| /   slide up 
| \   slide down 
| h   hammer-on 
| p   pull-off 
| ~   vibrato 
| +   harmonic 
| x   Mute note 
| b   Bend 
| pb  Pre-bend 
| br  Bend release 
| pbr Pre-bend release 
| brb Bend release bend 

************************************ 
		  

See also:

tabs Dz Deathrays - Total Meltdown tabs Jerk - Blow It All Away tabs Dz Deathrays - Black Rat tabs Dz Deathrays - Dollar Chills tabs Dz Deathrays - Gina Works At Hearts tabs Jerk - Rise
e-chords

Other versions:

tabs Dz Deathrays - Gina Works At Hearts
auto scroll beats size up size down change color hide chords drawings
tab show chords e-chords YouTube Clip e-chords hide all tabs e-chords go to top tab

share