Dragon Ball Z

home > Dragon Ball Z

Dragon Ball Z Tab

Dragon Ball Z

Difficulty: BeginnerBeginner

by leuzemico77

tuner correct add songbook print version text version save to e-mail
chordsukulelecavacokeyboardtabbassdrumsharmonicsflute Guitar Pro
chords

Dragon Ball Z

  		CHA-LA HEAD-CHA-LA 

Aki les mando la linea de bajo del tema de la mejor serie de 
todos tiempos... DRAGON BALL Z 

INTRO 

G|---------------------------------|---------------------------------| 
D|---------2---0---0---2-----------|---------0---2---0-------0---2---| 
A|---------------------------------|---------------------2-----------| 
E|-0---0-----------------------0---|-----0---------------------------| 

G|---------------------------------|---------------------------------| 
D|---------2---0---0---2-----------|---------0---2---0---2-------2---| 
A|---------------------------------|---------------------------------| 
E|-0---0-----------------------0---|-----0---------------------------| 

G|---------------------------------|-------------2-----------2-------| 
D|-----2---2---2---2---2---2---2---|-2---0---2-------0---2-------0---| 
A|---------------------------------|---------------------------------| 
E|---------------------------------|---------------------------------| 

VERSE 

G|---------------------------------|---------------------------------| 
D|---------------------------------|-------------------------2---1---| 
A|---------------------------------|---------------------------------| 
E|-0---0---0---0---0---0---0---0---|-0---0---0---0---0---0-----------| 

G|---------------------------------|---------------------------------| 
D|-0---0---0---0---0---0---0---0---|-0---0---0---0---0---0---0---0---| 
A|---------------------------------|---------------------------------| 
E|---------------------------------|---------------------------------| 

G|---------------------------------|---------------------------------| 
D|---------------------------------|---------------------------------| 
A|-3---3---3---3---3---3---3---3---|-3---3---3---3---3---3---3---3---| 
E|---------------------------------|---------------------------------| 

G|---------------------------------|---------------------------------| 
D|---------------------------------|---------------------------------| 
A|---------------------------------|-2---2---2---2---2---2-------2---| 
E|-3---3---3---3---3---3---3---3---|-------------------------2-------| 

G|---------------------------------|---------------------------------| 
D|---------------------------------|-------------------------2---1---| 
A|---------------------------------|---------------------------------| 
E|-0---0---0---0---0---0---0---0---|-0---0---0---0---0---0-----------| 

G|---------------------------------|---------------------------------| 
D|-0---0---0---0---0---0---0---0---|-0---0---0---0---0---0---0---0---| 
A|---------------------------------|---------------------------------| 
E|---------------------------------|---------------------------------| 

G|---------------------------------|---------------------------------| 
D|---------------------------------|---------------------------------| 
A|-3---3---3---3---3---3---3---3---|-3---3---3---3---3---3---3---3---| 
E|---------------------------------|---------------------------------| 

G|---------------------------------|---------------------------------| 
D|---------------------------------|---------------------------------| 
A|-2---2---2---2---2---2---2---2---|-2---2---2---2---2---2---2---2---| 
E|---------------------------------|---------------------------------| 

G|-------------6-------------------|---------------------------------| 
D|---------6-----------------------|---------------------------------| 
A|-4---4---------------------------|-6-----------6-------------------| 
E|---------------------------------|---------------------------------| 

G|-------------9-------------------|---------------------------------| 
D|---------9-----------------------|---------------------------------| 
A|-7---7---------------------------|-7-----------7-------------------| 
E|---------------------------------|---------------------------------| 

G|---------------------------------|---------------------------------| 
D|-0---0---0---0---0---0---0---0---|-0---0---0---0---0---0---0---0---| 
A|---------------------------------|---------------------------------| 
E|---------------------------------|---------------------------------| 

G|---------------------------------|---------------------------------| 
D|---------------------------------|---------------------------------| 
A|-4---4---4---4---4---4---4---4---|-4---4---4---4---4---4---4---4---| 
E|---------------------------------|---------------------------------| 

G|---------------------------------|-------------9-------7-----------| 
D|---------------------------------|---------7-------9-----------7---| 
A|-2---2---2---2---2---2---2---2---|-----9-------------------9-------| 
E|---------------------------------|---------------------------------| 

Chorus 

G|---------------------------------|---------------------------------| 
D|---------------------------------|---------------------------------| 
A|---------------------------------|---------------------------------| 
E|-3---3---3---3---3---3---3---3---|-3---3---3---3---3---3---3---3---| 

G|---------------------------------|---------------------------------| 
D|---------------------------------|---------------------------------| 
A|---------------------------------|---------------------------------| 
E|-2---2---2---2---3---3---3---3---|-5---5---5---7-------7---7---7---| 

G|---------------------------------|---------------------------------| 
D|---------------------------------|---------------------------------| 
A|---------------------------------|-----------------3---3---3---3---| 
E|-3---3---3---3---2---2---2---2---|-0---0---0---0-------------------| 

G|---------------------------------|-2---2---2---2---2---------------| 
D|---------------------------------|---------------------2-----------| 
A|-0---0---0---0---0---0---0---0---|-------------------------4-------| 
E|---------------------------------|-----------------------------5---| 

G|---------------------------------|---------------------------------| 
D|---------------------------------|---------------------------------| 
A|---------------------------------|---------------------------------| 
E|-3---3---3---3---3---3---3---3---|-3---3---3---5-------5---5---5---| 

G|---------------------------------|---------------------------------| 
D|---------------------------------|---------------------------------| 
A|-5---5---5-----------------------|---------------------------------| 
E|-------------3-------3---3---3---|-5---5---5---7-------7---7---7---| 

G|---------------------------------|---------------------------------| 
D|---------------------------------|---------------------------------| 
A|---------------------------------|-1---1---1---1---1---1---1---1---| 
E|-3---3---3---3---3---3---3---3---|---------------------------------| 

G|---------------------------------|---------------------------------| 
D|---------------------------------|---------------------------------| 
A|---------------------------------|---------------------------------| 
E|-3---3---3---3---3---3---3---3---|-3---3---3---3---3---3---3---3---| 

G|---------------------------------|---------------------------------| 
D|---------------------------------|---------------------------------| 
A|---------------------------------|---------------------------------| 
E|-2---2---2---2---3---3---3---3---|-5---5---5---7-------7---7---7---| 

G|---------------------------------|---------------------------------| 
D|---------------------------------|---------------------------------| 
A|---------------------------------|-----------------3---3---3---3---| 
E|-3---3---3---3---2---2---2---2---|-0---0---0---0-------------------| 

G|---------------------------------|-2---2---2---2---2---------------| 
D|---------------------------------|---------------------2-----------| 
A|-0---0---0---0---0---0---0---0---|-------------------------4-------| 
E|---------------------------------|-----------------------------5---| 

G|---------------------------------|---------------------------------| 
D|---------------------------------|---------------------------------| 
A|---------------------------------|---------------------------------| 
E|-3---3---3---3---3---3---3---3---|-3---3---3---5-------5---5---5---| 

G|---------------------------------|---------------------------------| 
D|---------------------------------|---------------------------------| 
A|-5---5---5-----------------------|---------------------------------| 
E|-------------3-------3---3---3---|-5---5---5---7-------7---7---7---| 

G|---------------------------------|---------------------------------| 
D|---------------------------------|---------------------------------| 
A|---------------------------------|-1---1---1---1---1---1---1---1---| 
E|-3---3---3---3---3---3---3---3---|---------------------------------| 

G|---------------------------------|---------------------------------| 
D|---------------------------------|---------------------------------| 
A|-1---1---1---1---1---1---1---1---|-3---------------------------0---| 
E|---------------------------------|---------------------------------| 

G|---------------------------------|---------------------------------| 
D|---------------------------------|---------------------------------| 
A|---------------------------------|-1---------------------------3---| 
E|---------------------------------|---------------------------------| 

G|---------------------------------|---------------------------------| 
D|---------------------------------|---------------------------------| 
A|-------------------------5---5---|---------------------------------| 
E|---------------------------------|---------------------------------| 

G|---------------------------------| 
D|---------------------------------| 
A|-5---5---5---5-------------------| 
E|---------------------------------| 
	  

Search Paypal
auto scroll beats size up size down change color hide chords drawings
tab show chords e-chords YouTube Clip e-chords hide all tabs e-chords go to top tab