Heitor Villa Lobos

Choros No 1 Tab

Heitor Villa Lobos

Difficulty: nolevelnolevel

by ubirbomfim

tuner correct add songbook print version text version save to e-mail
chordsukulelecavacokeyboardtabbassdrumsharmonicsflute Guitar Pro
close

there isn't a video lesson for this song

chords

Choros No 1

  		|----------3-|-2--2-------3-|-2--0---------| 
|------0-5---|-2--2-----4---|-0--0-------3-| 
|------------|-3--3---4-----|-0--0-----0---| 
|------------|-2------------|--------2-----| 
|------------|-4----2-------|--------------| 
|------------|-2------------|-0----3-------| 


  E. S S S S S   E. S S S S S   E. S S S S S 
|--------------|----------0-3-|-2--2-------3---| 
|-0--0---------|----0---0-----|-2--2-----4-----| 
|-2--2-------0-|----0---------|-3--3---4-------| 
|-1--1-----1---|-4--2---------|----------------| 
|--------0-----|--------------|-4----2---------| 
|-2----2-------|-0----0-------|-2--------------| 


  E. S S S S S   E. S S S S S   E. S S S S S 
|-2--0-----0---|----------0-3-|-2--0-------7-| 
|-3--0---0---3-|-3--2---2-----|-2--1-----8---| 
|-1--0---------|-0--0---------|-0--0---9-----| 
|--------------|-2--2---------|--------------| 
|------2-------|-0----0-------|-0----0-------| 
|-0------------|--------------|--------------| 


  S E S S  E S   E. S S S S S   S E S S E S 
|-7-5-7-5-10-7-|-5--3---------|-5-3-5-3-8-5-| 
|-7-7-7-7------|-3--3---------|-5-5-5-5-----| 
|-5-5-5-5------|-4--4---------|-3-3-3-3-----| 
|-0-----0------|--------2-----|-------------| 
|--------------|----------5-4-|-3-----------| 
|--------------|-3----3-------|-------------| 


  E. S S S S S   S E S S E S   S S S S S S S S 
|-3--1---------|-3-1-0-2-3-4-|-5-0-------------| 
|-1--1---------|-3-3-3-3-3---|-----1-----------| 
|-2--2---------|-1-1-1-1-1---|-------2---------| 
|--------------|-------------|---------2-------| 
|------0-4-3-2-|-1-----1-----|-0---------3-0---| 
|-1------------|-------------|---------------3-| 


  S S S S S S S S   S S S S S S S S 
|-----2-3-2-0-----|-------2s7-----3--| 
|---2-----2---2---|-4---4-------5----| 
|-3-------2-----3-|-2-4-------0------| 
|-----------------|-4----------------| 
|-----------------|-2----------------| 
|-2-------2-------|------------------| 


  E. S S S S S   E. S S S S S   E. S S S S S 
|-2--2-------3-|-2--0---------|--------------| 
|-2--2-----4---|-0--0-------3-|-0--0---------| 
|-3--3---4-----|-0--0-----0---|-2--2-------0-| 
|-2------------|--------2-----|-1--1-----1---| 
|-4----2-------|--------------|--------0-----| 
|-2------------|-0----3-------|-2----2-------| 


  E. S S S S S   E. S S S S S   E. S S S S S 
|----------0-3-|-2--2-------3-|-2--0-----0---| 
|----0---0-----|-2--2-----4---|-3--0---0---3-| 
|----0---------|-3--3---4-----|-1--0---------| 
|-4--2---------|--------------|--------------| 
|--------------|-4----2-------|------2-------| 
|-0----0-------|-2------------|-0------------| 


  E. S S S S S   E. S S S S S   S E S S E S 
|----------0-3-|-2--0-------7-|-7-5-7-5-3-5-| 
|-3--2---2-----|-2--1-----8---|-7-7-7-3-3-3-| 
|-0--0---------|-0--0---9-----|-5-5-5-4-4-4-| 
|-2--2---------|--------------|-------------| 
|-0----0-------|-0----0-------|-5-----------| 
|--------------|--------------|-------3-----| 


  S E S S E S   S E S S E S   S E S S E S 
|-3-5-3-3-1-3-|-1-3-1-3-1-3-|-0-3-0-3-0-3-| 
|-5-5-5-1-1-1-|-3-3-3-3-3-3-|-2-2-2-2-2-2-| 
|-3-3-3-2-2-2-|-1-1-1-1-1-1-|-0-0-0-0-0-0-| 
|-------------|-------------|-------------| 
|-3-----------|-1-----1-----|-1-----1-----| 
|-------1-----|-------------|-------------| 


  S E S S E S   S S S S S S S S   S S S S S S S S 
|-0-2-0-2-0-2-|-3-0-------------|-----2-----2-5---| 
|-1-1-1-1-1-1-|-0---0-----------|---2---5-4-----4-| 
|-0-0-0-0-0-0-|-0-----0---------|-3-------2-------| 
|-------------|-2-------2-------|---------4-------| 
|-1-----0-----|-2---------2-----|---------2-------| 
|-------------|-------------3-0-|-2---------------| 


   Q  E  E    E. S S S S S   E. S E E 
|-0-----|-5--3---------|--------0-| 
|----0--|-3--3-----0-3-|-6--5-----| 
|----0--|-4--4---------|----3---3-| 
|----------|------0-3-----|----5---5-| 
|----------|--------------|-3--------| 
|-0--------|-3------------|------3---| 


  E. S S S S S   E. S E E   S E S S E S 
|-1--0---------|----------|-0-------0---| 
|-3--3-------3-|-3--2---2-|-0-3-0-1-1---| 
|-1--1-----1---|----0---0-|-2-2-2-2-2-2-| 
|--------0-----|----2---2-|---3-0-0---3-| 
|------2-------|-0--------|-----------5-| 
|-0------------|------3---|-1-----2-----| 


  S S S S S S S S   S E S S E S   S E S S E S 
|-0---5-3-0-------|---7-7---7-7-|---5-3---5-3-| 
|-1---------1-----|---3-3---3-3-|---3-3---3-3-| 
|-0-0---------2---|---5-5---5-5-|---4-4---4-4-| 
|---------------3-|-4-----4-----|-3-----3-----| 
|-----------------|-------------|-------------| 
|-3---------------|-------------|-------------| 


  S S S S S S S S   S E S S E S   S E S S E S   S E S S E S   S E S S E S 
|---5-3-0---------|---3-2---3-2-|---2-0---2-0-|---3-1-0-0---|---1-3--------| 
|---5-----1-------|---0-0---0-0-|---1-1---3-3-|---3-3-3-3---|---1-1---1-3--| 
|---5-------2-0---|---2-2---2-2-|---2-2---2-2-|---1-1-0-0---|---2-2---1-1--| 
|-2-------------2-|-1-----1-----|-0-----------|-------------|---------1-1--| 
|-----------------|-------------|-------3-----|-1-----2-2-2-|-3------------| 
|-----------------|-------------|-------------|-------------|-------4------| 


  S E S S E S   S E S E E   Q.   E   E. S S S S S 
|---0-3-5-3-1-|-------0---|-3----5-|-5--3---------| 
|---1-1-2-2---|-8-6-1-0-3-|-3------|-3--3-----0-3-| 
|---0-0-2-2---|-5-5---0-2-|-4------|-4--4---------| 
|-------2-----|-7-7-----3-|-2------|------0-3-----| 
|-------0-----|-5-------2-|--------|--------------| 
|-3-----------|-------3---|--------|-3------------| 


   E. S E E   E. S S S S S   E. S E E 
|-1--0---0-|-1--0---------|----------| 
|--------0-|-3--3-------3-|-3--2---2-| 
|----3---0-|-1--0-----0---|----0---0-| 
|----5-----|--------0-----|----2---2-| 
|-3--------|------2-------|-0--------| 
|------3---|-1------------|------3---| 


  S E S S E S   S S S S S S S S   S E S S E S 
|-0-------0---|-0---5p3-0-------|---7-5---5-3-| 
|-0-3-0-1-1-1-|-1---------1-----|---3-3---3-3-| 
|-2-2-2-2-2-2-|-0-0---------2-0-|---5-5---4-4-| 
|---3-0-0---0-|-----------------|-4-----3-----| 
|-------------|-----------------|-------------| 
|-1-----2-----|-3---------------|-------------| 


  E E  S E S   Q  S S S S   E. S S S S S 
|---0--8-----|----------3-|-2--2-------3---| 
|-1-0--------|------0-5---|-2--2-----4-----| 
|-0-0--9-----|------------|-3--3---4-------| 
|-2----------|------------|-2--------------| 
|-3---10-----|------------|-4----2---------| 
|------8-----|------------|-2--------------| 


  E. S S S S S   E. S S S S S   E. S S S S S 
|-2--0---------|--------------|----------0-3-| 
|-0--0-------3-|-0--0---------|----0---0-----| 
|-0--0-----0---|-2--2-------0-|----0---------| 
|--------2-----|-1--1-----1---|-4--2---------| 
|--------------|--------0-----|--------------| 
|-0----3-------|-2----2-------|-0----0-------| 


  E. S S S S S   E. S S S S S   E. S S S S S 
|-2--2-------3-|-2--0-----0---|----------0-3-| 
|-2--2-----4---|-3--0---0---3-|-3--2---2-----| 
|-3--3---4-----|-1--0---------|-0--0---------| 
|--------------|--------------|-2--2---------| 
|-4----2-------|------2-------|-0----0-------| 
|-2------------|-0------------|--------------| 


  E. S S S S S   S E S S  E S   E. S S S S S 
|-2--0-------7-|-7-5-7-5-10-7-|-5--3---------| 
|-2--1-----8---|-7-7-7-7------|-3--3---------| 
|-0--0---9-----|-5-5-5-5------|-4--4---------| 
|--------------|-0-----0------|--------2-----| 
|-0----0-------|--------------|----------5-4-| 
|--------------|--------------|-3----3-------| 


  S E S S E S   E. S S S S S   S E S S E S 
|-5-3-5-3-8-5-|-3--1---------|-3-1-0-2-3-4-| 
|-5-5-5-5-----|-1--1---------|-3-3-3-3-3---| 
|-3-3-3-3-----|-2--2---------|-1-1-0-1-1---| 
|-------------|--------------|-------------| 
|-3-----------|------0-4-3-2-|-1-----1-----| 
|-------------|-1------------|-------------| 


  S S S S S S S S   S S S S S S S S 
|-5-0-------------|-----2-3-2-0-----| 
|-----1-----------|---2-----2---2---| 
|-------2---------|-3-------2-----3-| 
|---------2-------|-----------------| 
|-0---------3-0---|-----------------| 
|---------------3-|-2-------2-------| 


  S S S S S S S S   E. S S S S S   E. S S S S S 
|-------2s7-----3-|-2--2-------3-|-2--0----------| 
|-4---4-------5---|-2--2-----4---|-0--0-------3--| 
|-2-4-------0-----|-3--3---4-----|-0--0-----0----| 
|-4---------------|-2------------|--------2------| 
|-2---------------|-4----2-------|---------------| 
|-----------------|-2------------|-0----3--------| 


  E. S S S S S   E. S S S S S   E. S S S S S 
|--------------|----------0-3-|-2--2-------3-| 
|-0--0---------|----0---0-----|-2--2-----4---| 
|-2--2-------0-|----0---------|-3--3---4-----| 
|-1--1-----1---|-4--2---------|--------------| 
|--------0-----|--------------|-4----2-------| 
|-2----2-------|-0----0-------|-2------------| 


  E. S S S S S   E. S S S S S   E. S S S S S 
|-2--0-----0---|----------0-3-|-2--0-------7-| 
|-3--0---0---3-|-3--2---2-----|-2--1-----8---| 
|-1--0---------|-0--0---------|-0--0---9-----| 
|--------------|-2--2---------|--------------| 
|------2-------|-0----0-------|-0----0-------| 
|-0------------|--------------|--------------| 


  S E S S E S   S E S S E S   S E S S E S   S E S S E S   S E S S E S 
|-7-5-7-5-3-5-|-3-5-3-3-1-3-|-1-3-1-3-1-3-|-0-3-0-3-0-3-|-0-2-0-2-0-2--| 
|-7-7-7-3-3-3-|-5-5-5-1-1-1-|-3-3-3-3-3-3-|-2-2-2-2-2-2-|-1-1-1-1-1-1--| 
|-5-5-5-4-4-4-|-3-3-3-2-2-2-|-1-1-1-1-1-1-|-0-0-0-0-0-0-|-0-0-0-0-0-0--| 
|-------------|-------------|-------------|-------------|--------------| 
|-5-----------|-3-----------|-1-----1-----|-1-----1-----|-1-----0------| 
|-------3-----|-------1-----|-------------|-------------|--------------| 


   S S S S S S S S   S S S S S S S S   Q  E  E 
|-3-0-------------|-----2-----2-5---|-0-----| 
|-0---0-----------|---2---5-4-----4-|----0--| 
|-0-----0---------|-3-------2-------|----0--| 
|-2-------2-------|---------4-------|----------| 
|-2---------2-----|---------2-------|----------| 
|-------------3-0-|-2---------------|-0--------| 


   S E S E E   E. S S S S S   S E S E E 
|-------0-0-|--------------|-----------| 
|-0-0-0-2-2-|-4--4-4-------|-------2-2-| 
|-1-1-1-0-0-|-4--4-4-------|-1-1-1-2-2-| 
|-2-2-2-----|-4--4-4-------|-2-2-2-4-4-| 
|-2-----1-1-|-0------0-----|-4-4-4-----| 
|-0---------|----------4-2-|-0-----0-0-| 


  E. S S S S S   S E S E E   S E S S E S 
|--------------|-4-4-4-4---|---4---4-----| 
|-1--1-1-------|-4-4-4-4-7-|-5-5-5-5-----| 
|-1--1-1-------|-5-5-5-5-5-|-6-6-6-6-----| 
|-2--2-2-------|---------6-|-6---6-------| 
|--------------|-----------|-4-----4-----| 
|-0------0-2-4-|-4-----4---|---------0-1-| 


   S E S E E   S E S S E S   S E S E E 
|---2-2-2---|---2---------|-------0-0--| 
|---2-2-2-5-|-4-4-4-------|-0-0-0-2-2--| 
|---3-3-3-3-|-2-2-2-------|-1-1-1-0-0--| 
|---------4-|-4---4-------|-2-2-2------| 
|-----------|-2-----2-0---|-2-----1----| 
|-2-----2---|-----------2-|-0----------| 


  E. S S S S S   S E S E E   E. S S S S S 
|--------------|-----------|--------------| 
|-4--4-4-------|-------2-2-|-1--1-1-------| 
|-4--4-4-------|-1-1-1-2-2-|-1--1-1-------| 
|-4--4-4-------|-2-2-2-4-4-|-2--2-2-------| 
|-0------0-----|-4-4-4-----|--------------| 
|----------4-2-|-0-----0-0-|-0------0-2-4-| 


  S E S E E   S E S S E S   S E S S E S 
|---2-2-4-2-|-------------|-------------| 
|---2-2-4-4-|---0-0---2-2-|---2-1---0-0-| 
|---2-2-2-2-|---1-1---4-4-|---1-0---2-2-| 
|-----------|---2-2---3-2-|---3-2---1-1-| 
|-0-----4---|-2---3-4---2-|-1---0-2-----| 
|-----------|-------------|-----------2-| 


  S. S S S T T T T T T T   S E S E E   E. S S S S S   S E S E E   E. S S S S S 
|------9-7---0-----------|-------0-0-|--------------|-----------|--------------| 
|----0-----9---0---------|-0-0-0-2-2-|-4--4-4-------|-------2-2-|-1--1-1-------| 
|----1-----------1-------|-1-1-1-0-0-|-4--4-4-------|-1-1-1-2-2-|-1--1-1-------| 
|----2-------------2-----|-2-2-2-----|-4--4-4-------|-2-2-2-4-4-|-2--2-2-------| 
|--------------------2---|-2-----1-1-|-0------0-----|-4-4-4-----|--------------| 
|-0--------------------4-|-0---------|----------4-2-|-0-----0-0-|-0------0-2-4-| 


   S E S E E   S E S S E S   S E S E E 
|-4-4-4-4-2-|---4---4-----|---2-2-2---| 
|-4-4-4-4-0-|-5-5-5-5-----|---2-2-2-5-| 
|-5-5-5-5-1-|-6-6-6-6-----|---3-3-3-3-| 
|-----------|-6---6-------|---------4-| 
|-----------|-4-----4-----|-----------| 
|-4-----4---|---------0-1-|-2-----2---| 


  S E S S E S   S E S E E   E. S S S S S 
|---2---------|-------0-0-|---------------| 
|-4-4-4-------|-0-0-0-2-2-|-4--4-4--------| 
|-2-2-2-------|-1-1-1-0-0-|-4--4-4--------| 
|-4---4-------|-2-2-2-----|-4--0-0--------| 
|-2-----2-0---|-2-----1---|-0------0------| 
|-----------2-|-----------|----------4-2--| 


   S E S E E   E. S S S S S   S E S E E 
|-----------|--------------|---2-2-4-2-| 
|-------2-2-|-1--1-1-------|---2-2-4-4-| 
|-1-1-1-2-2-|-1--1-1-------|---2-2-2-2-| 
|-2-2-2-4-4-|-2--2-2-------|-----------| 
|-4-4-4-----|--------------|-0-----4---| 
|-0-----0-0-|-0------0-2-4-|-----------| 


  S E S S E S   S E S S E S   E  E  E S S 
|-------------|-------------|-0---------0--*| 
|---0-0---2-2-|---2-1---0-0-|-0---------0--*| 
|---1-1---4-4-|---1-0---2-2-|-1---------1--*| 
|---2-2---3-2-|---3-2---1-1-|-----------*| 
|-2---3-4---2-|-1---0-2-----|-------4-2----*| 
|-------------|-----------2-|-0------0--*| 
	  

auto scroll beats size up size down change color hide chords drawings
tab show chords e-chords YouTube Clip e-chords hide all tabs e-chords go to top tab

share with facebook

Search Paypal