Músicas Infantis

home > Músicas Infantis

Marcha soldado Tab

Músicas Infantis

Difficulty: EasyEasy

by fellipecosta17

tuner correct add songbook print version text version save to e-mail
chords

Marcha soldado

  		e|3-3-0-----0-1-1-1-0-----------3-3-5-3-3-0---| 
b|------1-1----------3b-5-6-6-5-------------1-| 
g|--------------------------------------------| 
d|--------------------------------------------| 
a|--------------------------------------------| 
E|--------------------------------------------| 
 
e|----3-3-3---------3-3----------------- 
b|1-1-------1-1-1-1-----5-5-3-3-5-6-5-3- 
g|-------------------------------------- 
d|-------------------------------------- 
a|-------------------------------------- 
E|-------------------------------------- 
 
e|3-3-5-3-3-3-0---| 
b|--------------1-| 
g|----------------| 
d|----------------| 
a|----------------| 
E|----------------| 
 

	  

Search Paypal
auto scroll beats size up size down change color hide chords drawings
tab show chords e-chords YouTube Clip e-chords hide all tabs e-chords go to top tab