Dilermando reis

home > Dilermando reis

Magoado Tab

Dilermando reis

Difficulty: BeginnerBeginner

by marcnagel

tuner correct add songbook print version text version save to e-mail
chordsukulelecavacokeyboardtabbassdrumsharmonicsflute Guitar Pro
chords

Magoado

  		                                                                               
E||--13---------------12----|--10----10p---8----------|-----------------------| 
B||--0-----0----------------|-------------------10----|-----------------------| 
G||--10----10---------------|-------------------------|--9---------------9----| 
D||--12---------------------|-------------------------|-------9h---10---------| 
A||--11---------------------|--------0----------------|-----------------------| 
E||--0-----------0----------|-------------------------|-----------------------| 
                                                                     
--------8--------------|-------|--7h---8----4----7p---|--5----0----| 
--10---------6----6----|-------|----------------------|------------| 
-------------7----7----|-------|----------------------|------------| 
--------0--------------|-------|----------------------|------------| 
-----------------------|-------|----------------------|------------| 
-----------------------|--0----|----------------------|------------| 
                                                                           
----------------------|-------13---------------|--12----10----10p---8----| 
--1-------------------|-------0-----0----------|-------------------------| 
-------2--------------|-------10----10---------|-------------------------| 
------------2---------|-------12---------------|-------------------------| 
-----------------3----|--0----11---------------|-------------------------| 
----------------------|-------0-----------0----|-------------------------| 
                                                                         
------------------------|-------------7---------|-------7----7---------| 
--10--------------------|-------10--------------|--8-------------------| 
--------9---------------|--9---------------9----|-----------------8----| 
-------------9h---10----|-------------9---------|------------7---------| 
------------------------|-----------------------|----------------------| 
------------------------|-----------------------|----------------------| 
                                                                        
-------7----7----0----|----------------------|------------13----------| 
--7---------6---------|--3----1----0---------|------------0-----0-----| 
------------7---------|-----------------2----|--1---------10----10----| 
------------6---------|----------------------|-------3----12----------| 
----------------------|----------------------|------------12----------| 
----------------------|----------------------|------------0-----------| 
                                                                            
-------12----10----10p---|--8--------------------|-------------------8----| 
-------------------------|-------10--------------|-------------10---------| 
-------------------------|-------------9---------|--------9---------------| 
-------------------------|------------------9h---|--10---------------0----| 
-------------------0-----|-----------------------|------------------------| 
--0----------------------|-----------------------|------------------------| 
                                                                      
-----------------7h---|--8----4----7p---5----|------------------------| 
--6----6--------------|----------------------|--5---------------------| 
--7----7--------------|----------------------|-------5----------12----| 
----------------------|----------------------|------------11----------| 
----------------------|------------0---------|------------------------| 
------------0---------|----------------------|------------------------| 
                                                                             
--------9----12p---10----|-------------------------|-------7----10p---8----| 
--10---------------------|--10---------------------|--8--------------------| 
-------------------------|--------10---------10----|-----------------------| 
-------------0-----------|--------------9----------|-----------------------| 
-------------------------|-------------------------|-----------------------| 
-------------------------|-------------------------|-----------------------| 
                                                                      
----------------------|-------5----8p---6----|--5-------------------| 
--8-------------------|--6-------------------|--5-------------------| 
-------9---------8----|----------------------|--5-------------------| 
------------7---------|----------------------|----------------------| 
----------------------|----------------------|--0----6h---7---------| 
----------------------|------------6---------|-----------------8----| 
                                                                      
----------------------|----------------------|-------0----0----2----| 
----------------------|-----------------0----|--2-------------------| 
----------------------|-------1----2---------|----------------------| 
------------0----2----|--4-------------------|----------------------| 
--0----4--------------|----------------------|-------0--------------| 
----------------------|----------------------|----------------------| 
                                                                      
--0---------0----5----|--4----2----0---------|----------------------| 
-------4--------------|-----------------3----|--2--------------0----| 
----------------------|----------------------|-------2----1---------| 
----------------------|----------------------|----------------------| 
-----------------0----|----------------------|----------------------| 
----------------------|----------------------|------------0---------| 
                                                                        
----------------------|------------------9----|-------------------9----| 
----------------------|-----------------------|--12----9---------------| 
--2----1---------2----|--1---------10---------|-------------10---------| 
------------4---------|-------4---------------|------------------------| 
----------------------|-----------------------|-------------11---------| 
----------------------|------------9----------|------------------------| 
                                                                            
-------------------9----|--------------9----------|------------------7----| 
--12----9---------------|--10---------------10----|-----------------------| 
-------------11---------|--------11---------------|--11----9----8---------| 
------------------------|-------------------------|-----------------------| 
-------------9----------|-------------------------|-----------------------| 
------------------------|-------------------------|-------------7---------| 
                                                                        
------------------7----|-----------------------|----------------------| 
--10----7--------------|--10----7----3----2----|--0-------------------| 
-------------8---------|-----------------------|-------2----1---------| 
-----------------------|-----------------------|-----------------4----| 
-------------9---------|-----------------------|----------------------| 
-----------------------|-------------0---------|----------------------| 
                                                              
-------------||-------7--------------|-------5--------------| 
-------------||--7---------7---------|------------5---------| 
------------*||-----------------7----|--6--------------6----| 
--2----0----*||----------------------|----------------------| 
-------------||----------------------|----------------------| 
-------------||--7-------------------|--5-------------------| 
                                           
-------9---------7----|--5---------5----|| 
----------------------|--5---------5----|| 
--9---------7---------|--6---------6----|| 
----------------------|-----------------|| 
----------------------|--0---------0----|| 
----------------------|-------0---------|| 
	  

Search Paypal
auto scroll beats size up size down change color hide chords drawings
tab show chords e-chords YouTube Clip e-chords hide all tabs e-chords go to top tab