Dilermando reis

Serenata Do Adeus

Dilermando reis

tabs

by  ANG-LETRA

save to print version add songbook text version e-mail correct tuner
chordsukulelecavacokeyboardtabbassdrumsharmonicaflute Guitar Pro
close

there isn't a video lesson for this song

chords

Serenata Do Adeus

	  		
---7-----------5--7-8--7-5--7-5--3------------2--3-5--3-2--3-2--0----- 
------8--8-----------------------------------------------------------------------0-- 
------9--9-----------------------------------------------------------------------0-- 
------------------------------------------------------------------------------------ 
------------0-----------------------------1-2--3-------------------------------- 
---0------------------------------0-------------------------------------0----------- 
 
 
----------------3-----0----------------------------------------------------------- 
-----0-----0-----0-------------------0------------------------------------------ 
---------3--------------------------0--------------------------------------------- 
---------------------------------2---------7-4--1------------------------------- 
--2---------------2----------2------------9-6--3-3--2-0--------------------- 
------------------------0-3--------------------------5--3-2--------------------- 
 
 
---7-----------5--7-8--7-5--7-5--3------------2--3-5--3-2--3-2--0----- 
------8--8-----------------------------------------------------------------------0-- 
------9--9-----------------------------------------------------------------------0-- 
------------------------------------------------------------------------------------ 
------------0-----------------------------1-2--3-------------------------------- 
---0------------------------------0-------------------------------------0----------- 
 
 
----------------3-----0------------------------------------------------------------ 
-----0-----0--4-0-----0--0------------------------------------------------------ 
---------3---------------0--0------------------------------------------------------ 
------------------------------------------------------------------------------------ 
--2------------2--------------2-3--2-0---------------------------------------- 
-----------------------0----------------------3-2--------------------------------- 
 
Repete Parte 1 

PARTE 2 


 
--7-7--7-7--7-7--6-6--6-6--6-6--5-5--5-5--5-5--7------------------ 
--8-----8------------7-----7------------5-----5------------7--7--7------------ 
--9-----9------------6-----6------------5-----5------------8--8--8------------ 
---------9------------8-----8-------------------7------------------------------- 
---------7---------------------------------0-----0------------------------------- 
--0-------------------------------------------------------------7------------------ 
 
 
--7-7--7-7--7-7--6-6--6-6--6-6--5-5--5-5--5-5--7-7--7-7--7-7- 
--8-----8------------7-----7------------5-----5------------7-----7----------- 
--9-----9------------6-----6------------5-----5------------8-----8----------- 
---------9------------8-----8-------------------7-------------------7----------- 
---------7---------------------------------0-----0-------------------9----------- 
--0-------------------------------------------------------------7-----7----------- 
 
 
--3-3--3-3--3-3--5-5--5-5--7-5--2---------------------------------------- 
--5-----5------------5-----5---------------4--4---------------------------------- 
--3-----3------------5-----5-----7-5--2--2--2---------------------------------- 
--5-----5-------------------7----------------------------------------------------- 
--3-----3------------0-----0------------2--------2-3--2-0-------------------- 
-------------------------------------------------------------------3-2------------- 
 
Repete Parte 1 

PARTE 3 

 
--7-7--7-7--7-7--6-6--6-6--6-6--5-5--5-5--5-5--7------------------ 
--8-----8------------7-----7------------5-----5------------7--7--7------------ 
--9-----9------------6-----6------------5-----5------------8--8--8------------ 
---------9------------8-----8-------------------7------------------------------- 
---------7---------------------------------0-----0------------------------------- 
--0-------------------------------------------------------------7------------------ 
 
 
--7-7--7-7--7-7--6-6--6-6--6-6--5-5--5-5--5-5--7-7--7-7--7-7- 
--8-----8------------7-----7------------5-----5------------7-----7----------- 
--9-----9------------6-----6------------5-----5------------8-----8----------- 
---------9------------8-----8-------------------7-------------------7----------- 
---------7---------------------------------0-----0-------------------9----------- 
--0-------------------------------------------------------------7-----7----------- 
 
 
--3-3--3-3--3-3--5-5--5-5--7-5--2-2--2-2--3-------------------------- 
--5-----5------------5-----5-----------------------------4----------------------- 
--3-----3------------5-----5-----7-5--2--------------------------------------- 
--5-----5-------------------7----------------------------------------------------- 
--3-----3------------0-----0------------2--------------------------------------- 
------------------------------------------------------------------------------------- 
 
 
-----------------------0------------------------------------------------------- 
----------------0-2--2------------------------------------------------------- 
------------0---------0------------------------------------------------------- 
---------2------------2------------------------------------------------------- 
-----2----------------2------------------------------------------------------- 
--0-------------------0------------------------------------------------------- 
 
		  

See also:

tabs Unseen - Scream Out tabs Dilermando reis - Se Ela Perguntar tabs Dilermando reis - Serenata Do Adeus tabs Dilermando reis - Última Inspiração tabs Dilermando reis - Greensleaves tabs Dilermando reis - Fascinação
e-chords

Other versions:

tabs Dilermando reis - Serenata Do Adeus
auto scroll beats size up size down change color hide chords drawings
tab show chords e-chords YouTube Clip e-chords hide all tabs e-chords go to top tab

share