Dilermando reis

home > Dilermando reis

Se Ela Perguntar Tab

Dilermando reis

Difficulty: nolevelnolevel

by carlluz

tuner correct add songbook print version text version save to e-mail
chordsukulelecavacokeyboardtabbassdrumsharmonicsflute Guitar Pro
chords

Se Ela Perguntar

	  -12-11----13-----12-11h12--7---------2-0----0-2-3----2--1--1---- 
--------------0---------------8\----------4-------------2--2---- 
--------------0------------------------------------------------- 
----------------------------------0----------------------------- 
---------------------------------------------------0------------ 
--------0------------------------------------------------------- 



Frase 2 

---8-----5------------------------------------------------------ 
------5-----7-5-4----7\-1---5\----0----------------------------- 
------5------------5------2------------------------------------- 
-------------------7------4------------------------------------- 
-0-----------------6------3------------------------------------- 
--------------------------------0------------------------------- 



Frase em Em 

------------------------2---------------------------------------- 
------------------------1---------------------------------------- 
----------0-------------2---------------------------------------- 
-------2-----2----4--2--1---------------------------------------- 
-----2---------3------------------------------------------------- 
-0h3------------------------------------------------------------- 



Frase 4 



-12-11----13-----12-11h12--7---------2-0----0-2-3----5---------- 
--------------0---------------8\----------4-------------3------- 
--------------0-----------------------------------------2------- 
----------------------------------0---------------------4------- 
---------------------------------------------------2------------ 
--------0------------------------------------------------------- 


Frase 5 


-7-9-10-9-7-----11-----------------10--------------------------- 
--------------------10--10-------9------------------------------ 
--------------------11--11----10-------------------------------- 
-------------10-------------9----------------------------------- 
---------------------------------------------------------------- 
---------------------------------------------------------------- 


Frase 6 



-7-9-10-9-7-----11----------10--9-10-12-10-9----12-------------- 
--------------------10--10--9-----------------------10--10----10 
--------------------11--11--10----------------------8---8----9-- 
-------------10-------------9----------------10-------------7--- 
-----------------------------------------------------------8---- 
---------------------------------------------------------------- 



Frase 7 


-12-11---14----12-11-12-7-------2-0-----0-2-3---2----------8---- 
-------------0------------8\---------4-------------1--1--------- 
-------------0-------------------------------------2--2--------- 
------------------------------0--------------------------------- 
----------------------------------------------0----------0------ 
-------0-------------------------------------------------------- 





----5----------------------------------------------------------- 
-5-----7-5-----4-----7\---1-----5----0-------------------------- 
-5----------------5----------2----------1----------------------- 
------------------7----------4----------2----------------------- 
------------6-----------3---------------2----------------------- 
-----------------------------------0---------------------------- 



Frase 8 

-0-----0--5-4---7----5--8--7----9----8--12-11---14----11-12--7-- 
----5--------------5---------------8----------------0----------- 
----6--------------5---------------8----------------0----------- 
----8--------------5----------8--------------------------------- 
--------------0------------------------------------------------- 
----0-----------------------------------------0----------------- 




-------2p0-----0-2-3----3-------3-----2----2----0--------------- 
-8----------4--------------5-------4-----4--------------hn12---- 
---------------------------4-------2---------------hn13--------- 
---------------------------------------------------------------- 
----0-----------------4-------3--------------------------------- 
----------------------------------------------0----------------- 




------hn13------------------------------------------------------ 
---------------------------------------------------------------- 
-hn13----------------------------------------------------------- 
---------------------------------------------------------------- 
---------------------------------------------------------------- 
---------------------------------------------------------------- 



Parte 2 



---------------2-5-4----3-------2------0------------------------ 
-0-1-0----0----------------4-------0------0--------------------- 
--------3----4-------------2-------0------0--------------------- 
---------------------------4------------------------------------ 
----------------------2----------------------------------------- 
------------------------------0------0-------------------------- 


Frase 2  

-0---1p0-----0-----7--10--9--8--------7----------5-------------- 
----------4-----9------------9--9--------5--5-------5----------- 
-----------------------------7-----------5--5-------5----------- 
---------------------------------------------------------------- 
-----------------------------------0-----------0---------------- 
---3-------------------------0---------------------------------- 


Frase 3 


---14-12----------2-0-------0--10-9----8---------7-------------- 
---------13-----------1---1---------------8-8-------8----------- 
------------14--2-------2-----------------9-9-------9----------- 
---------------------------------------------------------------- 
-0-------------------------------------------------------------- 
-------------------------------------0---------0---------------- 

Frase 4 


-6-6-6--6-6-6--6-6-6--6-6-6--12-12-12--12-12-12--12-12-12------- 
-5-------------5---------------------------------11------------- 
--------6-------------6----------------12----------------------- 
-5---------------------------11--------------------------------- 
---------------------------------------------------------------- 
---------------------------------------------------------------- 



-12-12-12--11-11-11--11-11-11--11-11-11--11-11-11--8-8-8--8-8-8- 
-------------------------------10------------------------------- 
-12------------------11------------------11---------------8----- 
-----------10--------------------------------------7------------ 
---------------------------------------------------------------- 
---------------------------------------------------------------- 



-8-8-8--8-8-8--8------------------------------------------------ 
-7-------------7------------------------------------------------ 
--------8------------------------------------------------------- 
---------------------------------------------------------------- 
---------------------------------------------------------------- 
---------------------------------------------------------------- 


Frase 5 

--------------2-5-4----3--------2------0-----0----1p0---0------- 
-0-1p0----0-4-------------4-4------0------0-----------4--------- 
--------3-----------------2--------0------0--------------------- 
---------------------------------------------------------------- 
---------------------2------------------------------------------ 
------------------------------0------0----------3--------------- 





---7-10-9---8---------7--------5----14-12----------2-0-------0-- 
-9-------------9-9------5-5---------------13-----------1---1---- 
---------------7-7------5-5------------------14--2-------2------ 
---------------------------------------------------------------- 
--------------------0--------0----0----------------------------- 
----------0----------------------------------------------------- 




-10-9---8--------7------3----3--3----0---------------------hn12- 
----------8-8------8------5--4--4-----------hn12-------hn12----- 
----------9-9------9------4--2--2------hn12--------hn12--------- 
---------------------------------------------------------------- 
----------------------4------3---------------------------------- 
------0-------0--------------------0-------------0-------------- 


Final 



-12-11----13-----12-11h12--7---------2-0----0-2-3----2--1--1---- 
--------------0---------------8\----------4-------------2--2---- 
--------------0------------------------------------------------- 
----------------------------------0----------------------------- 
---------------------------------------------------0------------ 
--------0------------------------------------------------------- 






	  

there isn't a video lesson for this song

request
Full key step upFull key step up
Half key step upHalf key step up
Half key step downHalf key step down
Full key step downFull key step down
Search
auto scroll beats size up size down change color hide chords drawings
tab show chords e-chords YouTube Clip e-chords hide all tabs e-chords go to top tab