Dilermando reis

home > Dilermando reis

Fascinação Tab

Dilermando reis

Difficulty: AdvancedAdvanced

by jov%2Dcorrea

tuner correct add songbook print version text version save to e-mail
chordsukulelecavacokeyboardtabbassdrumsharmonicsflute Guitar Pro
chords

Fascinação

	  (pista 1) 

      Q    Q    Q    Q        Q    Q    Q    Q       Q    Q     Q    Q 
E|-------------2----5----|--10--------------9----|------------10----9----| 
B|---2----3--------------|--------7----7---------|--7--------------------| 
G||*----------------------|--------7----7---------|--7--------------------| 
D||*----------------------|---0-------------------|-----------------------| 
A|-----------------------|-----------------------|-------0---------------| 
E|-----------------------|-----------------------|-----------------------| 

  Q    Q    Q    Q       Q    Q    Q     Q       Q       Q    Q     Q    Q 
----------------------|-------2----5----10----|-------|--9---------10---------| 
--7----7---------2----|--3--------------------|--7----|-------7----------7----| 
--7----7--------------|-----------------------|--7----|-------7----------7----| 
----------------------|------------------0----|-------|-----------------------| 
------------0---------|-----------------------|-------|-----------------------| 
----------------------|-----------------------|-------|-----------------------| 

  Q    Q    Q    Q       Q    Q    Q    Q       Q    Q    Q    Q 
--9---------7---------|--9---------7---------|----------------------| 
-------7---------7----|-------7---------8----|--8-------------------| 
-------8---------8----|-------8---------9----|--9---------8----9----| 
----------------------|----------------------|----------------------| 
----------------------|----------------------|----------------------| 
--7-------------------|------------0---------|-------0--------------| 

  Q    Q     Q    Q       Q    Q    Q    Q       Q    Q     Q    Q 
-------7----12---------|----------------------|-------7----10---------| 
--8---------------8----|--8-------------------|--8---------------8----| 
------------------9----|--9---------8----9----|------------------9----| 
-----------------------|----------------------|-----------------------| 
-----------------------|----------------------|-------------0---------| 
-------------0---------|-------0--------------|-----------------------| 

  Q    Q    Q    Q       Q    Q     Q    Q        Q    Q    Q    Q 
--9-------------------|-------7----12---------|--10---------9---------| 
--8-------------------|--8---------------0----|--------0---------0----| 
--9---------8----9----|------------------0----|--------0---------0----| 
----------------------|-----------------------|-----------------------| 
----------------------|-----------------------|-----------------------| 
-------0--------------|-------------0---------|-----------------------| 

  Q    Q    Q    Q       Q    Q    Q    Q       Q    Q    Q    Q 
--7---------3---------|--0-------------------|------------0---------| 
-------0---------0----|-------0----3---------|-----------------3----| 
-------0---------0----|-------0--------------|--0-------------------| 
----------------------|-----------------2----|-------2--------------| 
----------------------|------------1---------|----------------------| 
----------------------|----------------------|----------------------| 

  Q    Q    Q    Q       Q    Q    Q    Q       Q    Q    Q    Q 
----------------------|----------------------|----------------------| 
--2-------------------|-------3--------------|--2--------------3----| 
----------------------|--2---------2----2----|-------2----2---------| 
-----------------4----|------------4----4----|-------4----4---------| 
--0----4----5---------|-------0--------------|--5-------------------| 
----------------------|----------------------|----------------------| 

  Q    Q    Q    Q       Q    Q    Q    Q       Q    Q    Q    Q 
----------------------|----------------------|----------------------| 
--2-------------------|----------------------|--3---------2---------| 
-------2----2---------|-----------------2----|-------2---------2----| 
-------4----4---------|------------4---------|-------4---------4----| 
--5--------------0----|--4----5--------------|--0-------------------| 
----------------------|----------------------|----------------------| 

  Q    Q    Q    Q       Q    Q    Q    Q       Q    Q    Q    Q 
----------------------|----------------------|----------------------| 
--3---------2---------|--0---------2---------|--0-------------------| 
-------2---------2----|-------2---------2----|-------0----0---------| 
-------4---------4----|-------4---------4----|-------2----2---------| 
----------------------|----------------------|----------------------| 
----------------------|----------------------|--0--------------0----| 

  Q    Q    Q    Q       Q    Q    Q    Q       Q    Q    Q    Q 
----------------------|--3---------2---------|--0-------------------| 
-----------------0----|----------------------|------------3---------| 
------------0---------|-------0---------0----|-------0---------0----| 
--1----2--------------|-------2---------2----|-------2---------2----| 
----------------------|----------------------|----------------------| 
----------------------|----------------------|----------------------| 

  Q    Q    Q    Q       Q    Q    Q    Q       Q    Q    Q    Q 
----------------------|------------0---------|----------------------| 
--0-------------------|------------0---------|------------0----0----| 
-------0----0---------|----------------------|-------0--------------| 
-------2---------2----|--4----2---------1----|--2-------------------| 
----------------------|--2-------------------|----------------------| 
----------------------|-------3--------------|-----------------3----| 

  Q    Q    Q    Q       Q    Q    Q    Q       Q    Q 
----------------------|----------------------|-------------|| 
------------2---------|-------2----3---------|-------------|| 
--0----0---------0----|--0--------------2----|------------*|| 
--2----2---------2----|--2-------------------|--4----0----*|| 
----------------------|----------------------|-------------|| 
----------------------|------------2---------|-------------|| 

  Q    Q    Q    Q       Q    Q    Q    Q       Q    Q    Q    Q 
----------------------|------------0---------|-------0----7---------| 
--3----2----1---------|--0----1--------------|--4--------------7----| 
-----------------2----|-----------------5----|-----------------5----| 
-----------------4----|-----------------4----|------------0---------| 
------------0---------|------------0---------|----------------------| 
----------------------|----------------------|----------------------| 

  Q    Q    Q    Q       Q    Q    Q    Q       Q    Q    Q    Q 
------------5----2----|----------------------|-----------------0----| 
--7-------------------|--3----2----1----0----|----------------------| 
--5-------------------|----------------------|--0---------0---------| 
----------------------|----------------------|--0----4--------------| 
-------0--------------|----------------------|-----------------2----| 
----------------------|-----------------3----|----------------------| 

  Q    Q     Q    Q       Q    Q    Q    Q       Q    Q    Q    Q 
------------------5----|-----------------3----|--1-------------------| 
-------2s----3---------|--3----3--------------|-------3----0---------| 
--0--------------------|--4----4--------------|-----------------2----| 
--0---------------3----|------------2---------|--0-------------------| 
-----------------------|----------------------|----------------------| 
-----------------------|----------------------|----------------------| 

  Q    Q    Q    Q       Q    Q     Q    Q       Q    Q    Q    Q 
----------------------|------------------1----|----------------------| 
-----------------3----|-------2s----3---------|-----------------3----| 
--0---------0---------|--0--------------------|--0----0--------------| 
-------4--------------|--3--------------------|--0----0--------------| 
-----------------2----|-----------------------|----------------------| 
--3-------------------|------------------3----|------------1---------| 

  Q    Q    Q    Q       Q    Q    Q     Q       Q    Q    Q    Q 
----------------------|-----------------------|-------0--------------| 
--0-------------------|-------1---------------|-------1--------------| 
-------2----0---------|-------0---------------|--2-------------------| 
-----------------3----|--2---------1s----2----|------------4----5----| 
----------------------|-----------------------|--0-------------------| 
----------------------|--0--------------------|----------------------| 

  Q    Q    Q    Q       Q    Q    Q    Q       Q    Q    Q    Q 
----------------------|------------3----8----|-------7---------5----| 
--3-------------------|-------5--------------|--7---------7---------| 
-------5---------4----|--5-------------------|--8---------8---------| 
-------5--------------|----------------------|----------------------| 
------------3---------|----------------------|----------------------| 
--3-------------------|----------------------|----------------------| 

  Q    Q    Q    Q       Q    Q    Q    Q       Q    Q    Q    Q 
-------7---------5----|-------3--------------|----------------------| 
--5---------5---------|--4---------1---------|--1---------1---------| 
--5---------5---------|--5---------0---------|--0---------0---------| 
-----------------4----|-------2--------------|----------------------| 
----------------------|-----------------3----|-----------------3----| 
----------------------|----------------------|-------3--------------| 

  Q    Q    Q    Q       Q    Q    Q    Q       Q    Q    Q    Q 
--5----3--------------|--0-------------------|----------------------| 
------------1----3----|-----------------0----|--1----3----3---------| 
----------------------|-------2--------------|-----------------0----| 
-------2--------------|------------3---------|-----------------3----| 
----------------------|----------------------|------------2---------| 
-----------------2----|-------1--------------|----------------------| 

  Q    Q    Q    Q       Q    Q    Q    Q       Q    Q 
--0-------------------|----------------------|------------|| 
-------3---------1----|--1-------------------|------------|| 
------------0---------|-------0---------0----|------------|| 
----------------------|------------2---------|--2---------|| 
----------------------|----------------------|-------3----|| 
-----------------3----|----------------------|------------|| 
	  

Search Paypal
auto scroll beats size up size down change color hide chords drawings
tab show chords e-chords YouTube Clip e-chords hide all tabs e-chords go to top tab