Dilermando reis

home > Dilermando reis

Última Inspiração Tab

Dilermando reis

Difficulty: EasyEasy

by adalgomes

tuner correct add songbook print version text version save to e-mail
chordsukulelecavacokeyboardtabbassdrumsharmonicsflute Guitar Pro
chords

Última Inspiração

  		     Q    Q    Q    Q       Q    Q    Q    Q       Q    Q    Q    Q 
E|----------------------|--1----0--------------|----------------------| 
B|------------0----1----|-----------------4----|--3----2----1---------| 
G|-------2--------------|------------1---------|-----------------2----| 
D|--2-------------------|------------2---------|-----------------1----| 
A|----------------------|-------2--------------|----------------------| 
E|----------------------|----------------------|------------1---------| 

  Q    Q    Q    Q       Q    Q    Q    Q       Q    Q    Q    Q 
----------------------|--0----0--------------|-------0----3----6----| 
----------------------|--1----1--------------|--2-------------------| 
--4----2----1----2----|-----------------2----|----------------------| 
----------------------|----------------------|----------------------| 
-----------------0----|------------0---------|----------------------| 
----------------------|----------------------|----------------------| 

  Q    Q    Q    Q       Q    Q    Q    Q       Q    Q    Q    Q 
--5---------4----3----|--2----1---------0----|----------------------| 
-------2--------------|------------2---------|--3----2----3---------| 
-------2--------------|------------0---------|-----------------2----| 
----------------------|------------2---------|-----------------3----| 
--3-------------------|-------0--------------|----------------------| 
----------------------|----------------------|------------1---------| 

  Q    Q    Q    Q       Q    Q    Q    Q       Q    Q    Q    Q 
----------------------|--0----1----5----4----|-------1--------------| 
------------2----3----|----------------------|--3---------3----0----| 
--2-------------------|----------------------|--4-------------------| 
--3----0--------------|----------------------|----------------------| 
----------------------|----------------------|----------------------| 
----------------------|-----------------0----|-----------------4----| 

  Q    Q    Q    Q       Q    Q    Q    Q       Q    Q    Q    Q 
------------0---------|----------------------|-------1----0---------| 
--1----3---------1----|--1-------------------|--1--------------3----| 
-----------------2----|--2--------------2----|----------------------| 
-----------------2----|--2---------2---------|----------------------| 
--0----2----3---------|-------0--------------|-----------------2----| 
----------------------|----------------------|----------------------| 

  Q    Q    Q    Q       Q    Q    Q    Q       Q    Q    Q    Q 
----------------------|------------0---------|----------------------| 
----------------------|-------0---------3----|--1-------------------| 
--1----1--------------|--1-------------------|-------2----2---------| 
--2----2---------2----|----------------------|-------2----2---------| 
----------------------|----------------------|--0--------------0----| 
------------0---------|----------------------|----------------------| 

  Q    Q    Q    Q       Q    Q         Q    Q    Q    Q 
----------------------|--0----1-----||----------------------| 
------------0----1----|-------------||-----------------0----| 
-------2--------------|------------*||------------1---------| 
--2-------------------|------------*||-------2--------------| 
----------------------|-------------||----------------------| 
----------------------|-------------||--0-------------------| 

  Q    Q    Q    Q       Q    Q    Q    Q       Q    Q    Q    Q 
--0-------------------|------------0----2----|--4----5----7----8----| 
-------0--------------|----------------------|----------------------| 
------------2---------|----------------------|----------------------| 
-----------------2----|----------------------|----------------------| 
------------0---------|--3----0--------------|----------------------| 
----------------------|----------------------|-----------------0----| 

    Q    Q    Q    Q       Q    Q    Q    Q       Q    Q    Q    Q 
|--------7----4----0----|-------0----4----5----|--7----8----7---------| 
|---5-------------------|--3-------------------|-----------------5----| 
|*--7-------------------|--1-------------------|-----------------5----| 
|*--6-------------------|--2-------------------|----------------------| 
|-----------------------|--2-------------------|-----------------0----| 
|-----------------------|----------------------|----------------------| 

  Q    Q    Q    Q       Q    Q    Q    Q       Q    Q    Q    Q 
--5--------------6----|--5----3----0---------|----------------------| 
-------5----5----5----|-----------------1----|-----------------2----| 
-------5----5----6----|----------------------|--2-------------------| 
----------------------|----------------------|-------3----2---------| 
----------------------|----------------------|----------------------| 
----------------------|----------------------|----------------------| 

  Q    Q    Q    Q       Q    Q    Q    Q       Q    Q    Q    Q 
--0----3----1----0----|----------------------|----------------------| 
----------------------|------------3---------|-------3----2----3----| 
----------------------|--2----2---------2----|--2----2--------------| 
----------------------|-----------------3----|--3----3--------------| 
----------------------|----------------------|-------0--------------| 
----------------------|------------1---------|----------------------| 

  Q    Q    Q    Q       Q    Q    Q    Q       Q    Q    Q    Q 
--0----1----0---------|------------0---------|------------0---------| 
-----------------4----|-----------------3----|--1----3---------3----| 
----------------------|--2----2--------------|----------------------| 
----------------------|--4----4--------------|----------------------| 
-----------------2----|------------3---------|----------------------| 
----------------------|----------------------|----------------------| 

  Q    Q    Q    Q       Q    Q    Q    Q       Q    Q    Q    Q 
----------------------|-----------------2----|--5----8---------7----| 
--1--------------0----|------------4---------|------------5---------| 
-------2----2---------|--3----4--------------|------------7---------| 
-------2----2---------|----------------------|------------6---------| 
--0--------------0----|----------------------|----------------------| 
----------------------|----------------------|-------0--------------| 

  Q    Q    Q    Q       Q    Q    Q    Q       Q    Q    Q    Q 
--7-------------------|--0----2----4----5----|--7----8---------7----| 
-------3----3---------|----------------------|------------5---------| 
-------4----4---------|----------------------|------------7---------| 
-------6----6---------|----------------------|------------6---------| 
--7-------------------|----------------------|----------------------| 
-----------------0----|----------------------|-------0--------------| 

  Q    Q    Q    Q       Q    Q    Q    Q       Q    Q    Q    Q 
--4----0---------0----|--4----5----7----8----|--7--------------5----| 
------------3---------|----------------------|-------5----5---------| 
------------1---------|----------------------|-------5----5---------| 
----------------------|----------------------|----------------------| 
------------2---------|----------------------|--0--------------7----| 
----------------------|----------------------|----------------------| 

  Q    Q    Q    Q       Q    Q    Q    Q       Q    Q    Q    Q 
------------6----5----|--3----0--------------|-----------------0----| 
--5----5----5---------|------------1---------|------------2---------| 
--5----5----6---------|-----------------2----|--0----2--------------| 
----------------------|----------------------|----------------------| 
----------------------|----------------------|----------------------| 
------------0---------|----------------------|--0-------------------| 

  Q    Q    Q    Q       Q    Q    Q    Q       Q    Q    Q    Q 
--3----1----0---------|----------------------|--0----1---------7----| 
----------------------|-------3----2----3----|------------3---------| 
-----------------2----|--2----2--------------|----------------------| 
------------0----3----|--3----3--------------|-----------------0----| 
----------------------|----------------------|----------------------| 
----------------------|----------------------|----------------------| 

  Q    Q    Q    Q       Q    Q    Q    Q       Q    Q    Q    Q 
-------5----5---------|--4----3----2----1----|------------0---------| 
--6--------------5----|-----------------1----|--1----3--------------| 
--7--------------5----|-----------------2----|--2----4---------2----| 
----------------------|----------------------|-----------------2----| 
------------0---------|-----------------0----|------------0---------| 
----------------------|----------------------|----------------------| 

  Q    Q    Q    Q       Q    Q    Q    Q       Q    Q    Q    Q 
----------------------|-----------------0----|----------------------| 
--4----3----2----1----|--0---------0---------|----------------------| 
----------------------|-------3--------------|--1----2--------------| 
----------------------|----------------------|------------2---------| 
----------------------|----------------------|-------0---------3----| 
----------------------|----------------------|----------------------| 

  Q    Q    Q    Q       Q         Q    Q    Q    Q       Q    Q    Q 
--0----2----4----5----|--7-----||----------------------|-------1---------|| 
----------------------|--------||-----------------0----|--1--------------|| 
----------------------|-------*||--2---------2---------|-----------------|| 
----------------------|-------*||-------2--------------|-----------------|| 
----------------------|--------||--0-------------------|------------0----|| 
----------------------|--------||----------------------|-----------------|| 
	  

Search Paypal
auto scroll beats size up size down change color hide chords drawings
tab show chords e-chords YouTube Clip e-chords hide all tabs e-chords go to top tab