Destruction

Release From Agony

Destruction

tabs

by  DEIVCAVALCANTI

save to print version add songbook text version e-mail correct tuner
chordsukulelecavacokeyboardtabbassdrumsharmonicaflute Guitar Pro
close

there isn't a video lesson for this song

chords

Release From Agony

	  		

Gtr I (E A D G B E) - 'Guitar 1' 
Gtr II (E A D G B E) - 'Guitar 2' 
Gtr III (E A D G B E) - 'Solo' 
Gtr IV (E A D G B E) - 'Fill' 


 Intro 
  Heavy Metal Q=195 
  E5            B5              F#5   A5        F#5 
 4/4 
  Gtr I 
  PM  PM------|   PM--------|     PM|   PM----|   PM| 
|-----------------------------|-------------------------| 
|-----------------------------|-------------------------| 
|-----------------------------|-------------------------| 
|-----------------------------|-------------------------| 
|-2-------------9-------------|-4-----7---------4-----4-| 
|-0-0-0-0-0-0-0-7-0-0-0-0-0-0-|-2-0-0-5-0-0-0-0-2-0-0-2-| 
| 
| Gtr II 
|-----------------------------|-------------------------| 
|-----------------------------|-------------------------| 
|-----------------------------|-------------------------| 
|-----------------------------|-------------------------| 
|-2-------------9-------------|-4-----7---------4-----4-| 
|-0-------------7-------------|-2-----5---------2-----2-| 


                B5              F#5   A5        F5 
    PM--------|   PM--------|     PM|   PM----|    PM| 
|-----------------------------|----------------------------| 
|-----------------------------|----------------------------| 
|-----------------------------|----------------------------| 
|-----------------------------|-----------------10-----10--| 
|-2-------------9-------------|-4-----7----------8------8--| 
|-0-0-0-0-0-0-0-7-0-0-0-0-0-0-|-2-0-0-5-0-0-0-0----0-0-----| 
| 
|-----------------------------|----------------------------| 
|-----------------------------|----------------------------| 
|-----------------------------|----------------------------| 
|-----------------------------|-----------------10-----10--| 
|-2-------------9-------------|-4-----7----------8------8--| 
|-0-------------7-------------|-2-----5--------------------| 


  E5            B5              F#5   A5        F#5 
    PM--------|   PM--------|     PM|   PM----|   PM| 
|-----------------------------|-------------------------| 
|-----------------------------|-------------------------| 
|-----------------------------|-------------------------| 
|-9---------------------------|-------------------------| 
|-7-------------9-------------|-4-----7---------4-----4-| 
|---0-0-0-0-0-0-7-0-0-0-0-0-0-|-2-0-0-5-0-0-0-0-2-0-0-2-| 
| 
|-----------------------------|-------------------------| 
|-----------------------------|-------------------------| 
|-----------------------------|-------------------------| 
|-9---------------------------|-------------------------| 
|-7-------------9-------------|-4-----7---------4-----4-| 
|---------------7-------------|-2-----5---------2-----2-| 


  E5            B5              F#5   A5        F5 
    PM--------|   PM--------|     PM|   PM----|    PM| 
|-----------------------------|------------------------------|| 
|-----------------------------|------------------------------|| 
|-----------------------------|------------------------------|| 
|-----------------------------|-----------------10-----10----|| 
|-2-------------9-------------|-4-----7----------8------8----|| 
|-0-0-0-0-0-0-0-7-0-0-0-0-0-0-|-2-0-0-5-0-0-0-0----0-0-------|| 
| 
|-----------------------------|------------------------------|| 
|-----------------------------|------------------------------|| 
|-----------------------------|------------------------------|| 
|-----------------------------|-----------------10-----10----|| 
|-2-------------9-------------|-4-----7----------8------8----|| 
|-0-------------7-------------|-2-----5----------------------|| 


    Faster Q=208 
    E5            B5              F#5   A5        F#5 
    Gtrs I, II 
      PM--------|   PM--------|     PM|   PM----|   PM| 
||------------------------------|-------------------------| 
||o-----------------------------|-------------------------| 
||------------------------------|-------------------------| 
||--9---------------------------|-------------------------| 
||o-7-------------9-------------|-4-----7---------4-----4-| 
||----0-0-0-0-0-0-7-0-0-0-0-0-0-|-2-0-0-5-0-0-0-0-2-0-0-2-| 


  E5            B5              F#5   A5        F5 
    PM--------|   PM--------|     PM|   PM----|    PM| 
                                                             6x 
|-----------------------------|------------------------------|| 
|-----------------------------|-----------------------------o|| 
|-----------------------------|------------------------------|| 
|-----------------------------|-----------------10-----10----|| 
|-2-------------9-------------|-4-----7----------8------8---o|| 
|-0-0-0-0-0-0-0-7-0-0-0-0-0-0-|-2-0-0-5-0-0-0-0----0-0-------|| 


   Verse 
    PM----|   PM        PM--|   PM 
||------------------|-----------------| 
||o-----------------|-----------------| 
||------------------|-----------------| 
||--------------8-8-|-7---------------| 
||o---------7-------|-------------8-8-| 
||--0-0-0-0---0-----|---0-0-0-7-0-----| 


        G#F#5   F5  E5 
    PM|     PM|       PM----------------| 
|-----------------|--------------------------|| 
|-----------------|-------------------------o|| 
|-----------------|--------------------------|| 
|-----------------|--------------------------|| 
|-7-----6S4-----3p|=2-------1-1-1-1-1-1-1---o|| 
|---0-0-4S2-0-0-1p|=0-0-0-0------------------|| 


 Chorus 
  Q=135 
  C#5C5 C#5             G#5   C             G5          C5B5G5 
 3/4           4/4 
                PM----|   PM|     PM----|     PM------| 
|-----------||----------------------------|-------------------| 
|-----------||o---------------------------|-------------------| 
|-----------||----------------------------|-------------------| 
|-6--5--6\--||----------------------------|-------------5-4---| 
|-4--3--4\--||o---------6-----4-4---------|-5-----------3-2-5-| 
|-----------||--3-3-3-3-4-3-3-3-3-2-2-2-2-|-3-2-2-2-2-3-----3-| 


          A5    C             G#5         C#C5C#5 
  PM----|   PM|     PM----|     PM------| 
|---------------------------|---------------------|| 
|---------------------------|--------------------o|| 
|---------------------------|---------------------|| 
|---------------------------|-------------6-5-6---|| 
|---------7-----5-5---------|-6-----------4-3-4--o|| 
|-4-4-4-4-5-4-4-4-4-3-3-3-3-|-4-3-3-3-3-4---------|| 


            A#5   C             A5          EbD5A5 
    PM----|   PM|     PM----|     PM------| 
||----------------------------|-------------------| 
||o---------------------------|-------------------| 
||----------------------------|-------------------| 
||----------------------------|-------------8-7---| 
||o---------8-----6-6---------|-7-----------6-5-7-| 
||--5-5-5-5-6-5-5-5-5-4-4-4-4-|-5-4-4-4-4-5-----5-| 


          B5    C             A#5         EbD5Eb5 
  PM----|   PM|     PM----|     PM------| 
|---------------------------|----------------------|| 
|---------------------------|---------------------o|| 
|---------------------------|----------------------|| 
|---------------------------|-------------8-7-8----|| 
|---------9-----7-7---------|-8-----------6-5-6---o|| 
|-6-6-6-6-7-6-6-6-6-5-5-5-5-|-6-5-5-5-5-6----------|| 


 Bridge 
|---------------------------------------| 
|---------------------------------------| 
|---------------------------------------| 
|----------8h11---------------8h11------| 
|-----7h10------7h10-----7h10------7h10-| 
|-6h9----------------6h9----------------| 


|---------------------------------------|| 
|---------------------------------------|| 
|---------------------------------------|| 
|----------8h11---------------8h11------|| 
|-----7h10------7h10-----7h10------7h10-|| 
|-6h9----------------6h9----------------|| 


 Main Riff 
  Q=208 
  E5            B5              F#5   A5        F#5 
  Gtrs I, II 
    PM--------|   PM--------|     PM|   PM----|   PM| 
|-----------------------------|-------------------------| 
|-----------------------------|-------------------------| 
|-----------------------------|-------------------------| 
|-----------------------------|-------------------------| 
|-2-------------9-------------|-4-----7---------4-----4-| 
|-0-0-0-0-0-0-0-7-0-0-0-0-0-0-|-2-0-0-5-0-0-0-0-2-0-0-2-| 


  E5            B5              F#5   A5        F5 
    PM--------|   PM--------|     PM|   PM----|    PM| 
|-----------------------------|------------------------------| 
|-----------------------------|------------------------------| 
|-----------------------------|------------------------------| 
|-----------------------------|-----------------10-----10----| 
|-2-------------9-------------|-4-----7----------8------8----| 
|-0-0-0-0-0-0-0-7-0-0-0-0-0-0-|-2-0-0-5-0-0-0-0----0-0-------| 


    E5            B5              F#5   A5        F#5 
      PM--------|   PM--------|     PM|   PM----|   PM| 
||------------------------------|-------------------------| 
||o-----------------------------|-------------------------| 
||------------------------------|-------------------------| 
||--9---------------------------|-------------------------| 
||o-7-------------9-------------|-4-----7---------4-----4-| 
||----0-0-0-0-0-0-7-0-0-0-0-0-0-|-2-0-0-5-0-0-0-0-2-0-0-2-| 


  E5            B5              F#5   A5        F5 
    PM--------|   PM--------|     PM|   PM    PM     PM 
                                                             5x 
|-----------------------------|------------------------------|| 
|-----------------------------|-----------------------------o|| 
|-----------------------------|------------------------------|| 
|-----------------------------|-----------------10-----10----|| 
|-2-------------9-------------|-4-----7----------8------8---o|| 
|-0-0-0-0-0-0-0-7-0-0-0-0-0-0-|-2-0-0-5-0-0-0-0----0-0-------|| 


   Verse 
    Gtrs I, II 
    PM----|   PM        PM--|   PM 
||------------------|-----------------| 
||o-----------------|-----------------| 
||------------------|-----------------| 
||--------------8-8-|-7---------------| 
||o---------7-------|-------------8-8-| 
||--0-0-0-0---0-----|---0-0-0-7-0-----| 


        G#F#5   F5  E5 
    PM|     PM|       PM----------------| 
|-----------------|--------------------------|| 
|-----------------|-------------------------o|| 
|-----------------|--------------------------|| 
|-----------------|--------------------------|| 
|-7-----6S4-----3p|=2-------1-1-1-1-1-1-1---o|| 
|---0-0-4S2-0-0-1p|=0-0-0-0------------------|| 


 Chorus 
  Q=135 
  C#5C5 C#5             G#5   C             G5          C5B5G5 
 3/4           4/4 
                PM----|   PM|     PM----|     PM------| 
|-----------||----------------------------|-------------------| 
|-----------||o---------------------------|-------------------| 
|-----------||----------------------------|-------------------| 
|-6--5--6\--||----------------------------|-------------5-4---| 
|-4--3--4\--||o---------6-----4-4---------|-5-----------3-2-5-| 
|-----------||--3-3-3-3-4-3-3-3-3-2-2-2-2-|-3-2-2-2-2-3-----3-| 


          A5    C             G#5         C#C5C#5 
  PM----|   PM|     PM----|     PM------| 
|---------------------------|---------------------|| 
|---------------------------|--------------------o|| 
|---------------------------|---------------------|| 
|---------------------------|-------------6-5-6---|| 
|---------7-----5-5---------|-6-----------4-3-4--o|| 
|-4-4-4-4-5-4-4-4-4-3-3-3-3-|-4-3-3-3-3-4---------|| 


            A#5   C             A5          EbD5A5 
    PM----|   PM|     PM----|     PM------| 
||----------------------------|-------------------| 
||o---------------------------|-------------------| 
||----------------------------|-------------------| 
||----------------------------|-------------8-7---| 
||o---------8-----6-6---------|-7-----------6-5-7-| 
||--5-5-5-5-6-5-5-5-5-4-4-4-4-|-5-4-4-4-4-5-----5-| 


          B5    C             A#5         EbD5Eb5 
  PM----|   PM|     PM----|     PM------| 
|---------------------------|----------------------|| 
|---------------------------|---------------------o|| 
|---------------------------|----------------------|| 
|---------------------------|-------------8-7-8----|| 
|---------9-----7-7---------|-8-----------6-5-6---o|| 
|-6-6-6-6-7-6-6-6-6-5-5-5-5-|-6-5-5-5-5-6----------|| 


 Breakdown 
  Q=200 
  N.C. 
                                                6/4 
  Gtr I 
           PM--------------------------------|            PM----| 
|------------------|---------------------------|---------------------------| 
|------------------|---------------------------|---------------------------| 
|------------------|---------------------------|---------------------------| 
|------------------|---------------------------|---------------------------| 
|-7----6---5-----5-|---------------------------|-7----6---5-----5---6----7-| 
|----8---7---6-6---|-0-0-0-0-0-0-0-0-0-0-0-0-0-|----8---7---6-6---7----8---| 
| 
| Gtr II 
|          PM--------------------------------|            PM----| 
|------------------|---------------------------|---------------------------| 
|------------------|---------------------------|---------------------------| 
|-9----8---7-----7-|---------------------------|-9----8---7-----7---8----9-| 
|---10---9---8-8---|---------------------------|---10---9---8-8---9---10---| 
|------------------|---------------------------|---------------------------| 
|------------------|-0-0-0-0-0-0-0-0-0-0-0-0-0-|---------------------------| 


  PM----------| 
|--------------------------------| 
|--------------------------------| 
|--------------------------------| 
|--------------------------------| 
|---------------7----6---5-----5-| 
|-0-0-0-0-0-0-0----8---7---6-6---| 
| 
| PM----------| 
|--------------------------------| 
|--------------------------------| 
|---------------9----8---7-----7-| 
|-----------------10---9---8-8---| 
|--------------------------------| 
|-0-0-0-0-0-0-0------------------| 
| 
| Gtr IV 
|--------------------------------| 
|--------------------------------| 
|--------------------------------| 
|--------------------------------| 
|--------------------------------| 
|--------------------------------| 


 4/4                         6/4 
  PM----------------------| 
|---------------------------|--------------------------------| 
|---------------------------|--------------------------------| 
|---------------------------|--------------------------------| 
|---------------------------|--------------------------------| 
|---------------------------|--7-------6---5-----5---6----7--| 
|-0-0-0-0-0-0-0-0-0-0-0-0-0-|--------8---7---6-6---7----8----| 
| 
| PM----------------------| 
|---------------------------|--------------------------------| 
|---------------------------|--------------------------------| 
|---------------------------|--9-------8---7-----7---8----9--| 
|---------------------------|-------10---9---8-8---9---10----| 
|---------------------------|--------------------------------| 
|-0-0-0-0-0-0-0-0-0-0-0-0-0-|--------------------------------| 
| 
|                              \2.5 
|---------------------------|--------------------------------| 
|---------------------------|--------------------------------| 
|---------------------------|--------------------------------| 
|---------------------------|--------------------------------| 
|---------------------------|-5----------------------------| 
|---------------------------|-5----------------------------| 


 Bridge 
  N.C. 
  Gtrs I, II 
    PM----------------|   PM----------------|   PM--|   PM--| 
|-------------------------------------|-------------------------| 
|-------------------------------------|-------------------------| 
|-------------------------------------|-------------------------| 
|-------------------------------------|-------------------------| 
|-----------------------5-------------|-------6-------7-------6-| 
|---0---0-0-0-0-0-0-6-6---0-0-0-0-0-0-|-0-7-7---0-8-8---0-7-7---| 
| 
| Gtr IV 
|   > 
|-------------------------------------|-------------------------| 
|-------------------------------------|-------------------------| 
|-------------------------------------|-------------------------| 
|-------------------------------------|-------------------------| 
|-(5)-------------------------------|-------------------------| 
|-(5)-------------------------------|-------------------------| 


  PM--------------------------------| 
|---------------------------------------| 
|---------------------------------------| 
|---------------------------------------| 
|---------------------------------------| 
|---------------------------------------| 
|-0-0-0-0-0-0-0-0-0-0-0-0-0-0-0-0-0-0---| 
| 
|---------------------------------------| 
|---------------------------------------| 
|---------------------------------------| 
|---------------------------------------| 
|---------------------------------------| 
|---------------------------------------| 


  Gtrs I, II 
  PM--------------|   PM----------------|   PM--|   PM--| 
|---------------------------------|-------------------------| 
|---------------------------------|-------------------------| 
|---------------------------------|-------------------------| 
|---------------------------------|-------------------------| 
|-------------------5-------------|-------6-------7-------6-| 
|-0-0-0-0-0-0-0-6-6---0-0-0-0-0-0-|-0-7-7---0-8-8---0-7-7---| 


  PM--------------------------------| 
|---------------------------------------| 
|---------------------------------------| 
|---------------------------------------| 
|---------------------------------------| 
|---------------------------------------| 
|-0-0-0-0-0-0-0-0-0-0-0-0-0-0-0-0-0-0---| 


 Breakdown 
  N.C. 
 4/4                                            6/4 
  Gtr I 
                     PM----------------------| 
|------------------|---------------------------|----------------------------| 
|------------------|---------------------------|----------------------------| 
|------------------|---------------------------|----------------------------| 
|------------------|---------------------------|----------------------------| 
|-7----6---5-----5-|---------------------------|-7----6---5-----5---6----7--| 
|----8---7---6-6---|-0-0-0-0-0-0-0-0-0-0-0-0-0-|----8---7---6-6---7----8----| 
| 
| Gtr II 
|                    PM----------------------| 
|------------------|---------------------------|----------------------------| 
|------------------|---------------------------|----------------------------| 
|-9----8---7-----7-|---------------------------|-9----8---7-----7---8----9--| 
|---10---9---8-8---|---------------------------|---10---9---8-8---9---10----| 
|------------------|---------------------------|----------------------------| 
|------------------|-0-0-0-0-0-0-0-0-0-0-0-0-0-|----------------------------| 


                                  4/4 
  PM----------|                    PM----------------------| 
|--------------------------------|---------------------------| 
|--------------------------------|---------------------------| 
|--------------------------------|---------------------------| 
|--------------------------------|---------------------------| 
|---------------7----6---5-----5-|---------------------------| 
|-0-0-0-0-0-0-0----8---7---6-6---|-0-0-0-0-0-0-0-0-0-0-0-0-0-| 
| 
| PM----------|                    PM----------------------| 
|--------------------------------|---------------------------| 
|--------------------------------|---------------------------| 
|---------------9----8---7-----7-|---------------------------| 
|-----------------10---9---8-8---|---------------------------| 
|--------------------------------|---------------------------| 
|-0-0-0-0-0-0-0------------------|-0-0-0-0-0-0-0-0-0-0-0-0-0-| 


|------------------|------------------| 
|------------------|------------------| 
|------------------|------------------| 
|------------------|------------------| 
|-7----6---5-----5-|-6---5---4-----4--| 
|----8---7---6-6---|---7---6---5-5----| 
| 
|------------------|------------------| 
|------------------|------------------| 
|-9----8---7-----7-|-8---7---6-----6--| 
|---10---9---8-8---|---9---8---7-7----| 
|------------------|------------------| 
|------------------|------------------| 


 Main Riff 
  Q=208 
  E5            B5              F#5   A5        F#5 
  Gtrs I, II 
  PM  PM------|   PM--------|     PM|   PM----|   PM| 
|-----------------------------|-------------------------| 
|-----------------------------|-------------------------| 
|-----------------------------|-------------------------| 
|-----------------------------|-------------------------| 
|-2-------------9-------------|-4-----7---------4-----4-| 
|-0-0-0-0-0-0-0-7-0-0-0-0-0-0-|-2-0-0-5-0-0-0-0-2-0-0-2-| 


  E5            B5              F#5   A5        F5 
    PM--------|   PM--------|     PM|   PM----|    PM| 
|-----------------------------|------------------------------| 
|-----------------------------|------------------------------| 
|-----------------------------|------------------------------| 
|-----------------------------|-----------------10-----10----| 
|-2-------------9-------------|-4-----7----------8------8----| 
|-0-0-0-0-0-0-0-7-0-0-0-0-0-0-|-2-0-0-5-0-0-0-0----0-0-------| 


    E5            B5              F#5   A5        F#5 
      PM--------|   PM--------|     PM|   PM----|   PM| 
||------------------------------|-------------------------| 
||o-----------------------------|-------------------------| 
||------------------------------|-------------------------| 
||--9---------------------------|-------------------------| 
||o-7-------------9-------------|-4-----7---------4-----4-| 
||----0-0-0-0-0-0-7-0-0-0-0-0-0-|-2-0-0-5-0-0-0-0-2-0-0-2-| 


  E5            B5              F#5   A5        F5 
    PM--------|   PM--------|     PM|   PM----|    PM| 
                                                             5x 
|-----------------------------|------------------------------|| 
|-----------------------------|-----------------------------o|| 
|-----------------------------|------------------------------|| 
|-----------------------------|-----------------10-----10----|| 
|-2-------------9-------------|-4-----7----------8------8---o|| 
|-0-0-0-0-0-0-0-7-0-0-0-0-0-0-|-2-0-0-5-0-0-0-0----0-0-------|| 


   Guitar Solo 
    N.C. 
    Gtr III 
||--------------------------------------|-------------------------------------| 
||o-14-12-10-12-10----14-12-10-12-10----|-14-12-10-12-10----14-12-10-12-10----| 
||-----------------12----------------12-|----------------12----------------12-| 
||--------------------------------------|-------------------------------------| 
||o-------------------------------------|-------------------------------------| 
||--------------------------------------|-------------------------------------| 
| 
|   Gtrs I, II 
|    TP                                    TP 
||--------------------------------------|-------------------------------------| 
||o-------------------------------------|-------------------------------------| 
||--------------------------------------|-------------------------------------| 
||--------------------------------------|-------------------------------------| 
||o-------------------------------------|-------------------------------------| 
||---7----------------------------------|--7----------------------------------| 


  N.C. 
|---------------|---------------|-----------------| 
|---------------|---------------|-----------------| 
|-11------13-14-|-10------11-13-|-10--------------| 
|---------------|---------------|-----11------11--| 
|---------------|---------------|---------11------| 
|---------------|---------------|-----------------| 
| 
|  TP              TP              TP 
|---------------|---------------|-----------------| 
|---------------|---------------|-----------------| 
|---------------|---------------|-----------------| 
|---------------|---------------|-----------------| 
|---------------|---------------|-----------------| 
|--4------------|--3------------|--2--------------| 


|-----------------||---------------- 
|----------------o||---------------- 
|-9---------------||-8--9------8---- 
|----11------11---||-------11------- 
|--------11------o||---------------- 
|-----------------||---------------- 
| 
| TP                 TP 
|-----------------||---------------- 
|----------------o||---------------- 
|-----------------||---------------- 
|-----------------||---------------- 
|----------------o||---------------- 
|-1---------------||-0-------------- 


|-------------9-9-9-9-12-12-12-12-9-9-9-9-| 
|-10-10-10-10-----------------------------| 
|-----------------------------------------| 
|-----------------------------------------| 
|-----------------------------------------| 
|-----------------------------------------| 
| 
|  TP 
|-----------------------------------------| 
|-----------------------------------------| 
|-----------------------------------------| 
|-----------------------------------------| 
|-----------------------------------------| 
|--7--------------------------------------| 


|---------9-9-9-9-12-12-12-12-9-9-9-9-| 
|-9-9-9-9-----------------------------| 
|-------------------------------------| 
|-------------------------------------| 
|-------------------------------------| 
|-------------------------------------| 
| 
| TP 
|-------------------------------------| 
|-------------------------------------| 
|-------------------------------------| 
|-------------------------------------| 
|-------------------------------------| 
|-7-----------------------------------| 


|---------9-9-9-9-11-11-11-11-9-9-9-9-|---------8-8-8-8-11-11-11-11-8-8-8-8-| 
|-9-9-9-9-----------------------------|-9-9-9-9-----------------------------| 
|-------------------------------------|-------------------------------------| 
|-------------------------------------|-------------------------------------| 
|-------------------------------------|-------------------------------------| 
|-------------------------------------|-------------------------------------| 
| 
| TP                                    TP 
|-------------------------------------|-------------------------------------| 
|-------------------------------------|-------------------------------------| 
|-------------------------------------|-------------------------------------| 
|-------------------------------------|-------------------------------------| 
|-------------------------------------|-------------------------------------| 
|-5-----------------------------------|-7-----------------------------------| 


|---------8-8-8-8-11-11-11-11-8-8-8-8-|---------7-7-7-7-10-10-10-10-7-7-7-7-| 
|-8-8-8-8-----------------------------|-7-7-7-7-----------------------------| 
|-------------------------------------|-------------------------------------| 
|-------------------------------------|-------------------------------------| 
|-------------------------------------|-------------------------------------| 
|-------------------------------------|-------------------------------------| 
| 
| TP                                    TP 
|-------------------------------------|-------------------------------------| 
|-------------------------------------|-------------------------------------| 
|-------------------------------------|-------------------------------------| 
|-------------------------------------|-------------------------------------| 
|-------------------------------------|-------------------------------------| 
|-7-----------------------------------|-5-----------------------------------| 


|---------7-7-7-7-10-10-10-10-7-7-7-7-|-6--4--2--1--| 
|-6-6-6-6-----------------------------|-------------| 
|-------------------------------------|-------------| 
|-------------------------------------|-------------| 
|-------------------------------------|-------------| 
|-------------------------------------|-------------| 
| 
| TP                                    TP 
|-------------------------------------|-------------| 
|-------------------------------------|-------------| 
|-------------------------------------|-------------| 
|-------------------------------------|-------------| 
|-------------------------------------|-------------| 
|-6-----------------------------------|-5-----------| 


   T      T      T      T        T      T      T      T 
|-----------------------------|-----------------------------| 
|-14p9p6-14p9p6-14p9p6-14p9p6-|-14p9p6-14p9p6-14p9p6-14p9p6-| 
|-----------------------------|-----------------------------| 
|-----------------------------|-----------------------------| 
|-----------------------------|-----------------------------| 
|-----------------------------|-----------------------------| 
| 
|  TP                            TP 
|-----------------------------|-----------------------------| 
|-----------------------------|-----------------------------| 
|-----------------------------|-----------------------------| 
|-----------------------------|-----------------------------| 
|-----------------------------|-----------------------------| 
|--6--------------------------|--6--------------------------| 


   T       T       T       T         T      T      T      T 
|-15p10p7-------------------------|--------------------------------| 
|---------15p10p7-15p10p7-15p10p7-|-14p9p6-14p9p6-14p9p6-14p9p6----| 
|---------------------------------|--------------------------------| 
|---------------------------------|--------------------------------| 
|---------------------------------|--------------------------------| 
|---------------------------------|--------------------------------| 
| 
|  TP                                TP 
|---------------------------------|--------------------------------| 
|---------------------------------|--------------------------------| 
|---------------------------------|--------------------------------| 
|---------------------------------|--------------------------------| 
|---------------------------------|--------------------------------| 
|--7------------------------------|--6-----------------------------| 


   T       T       T       T         T      T      T      T 
|-15p10p7-15p10p7-15p10p7-15p10p7-|-14p9p6-14p9p6-14p9p6-14p9p6-| 
|---------------------------------|-----------------------------| 
|---------------------------------|-----------------------------| 
|---------------------------------|-----------------------------| 
|---------------------------------|-----------------------------| 
|---------------------------------|-----------------------------| 
| 
|  TP                                TP 
|---------------------------------|-----------------------------| 
|---------------------------------|-----------------------------| 
|---------------------------------|-----------------------------| 
|---------------------------------|-----------------------------| 
|---------------------------------|-----------------------------| 
|--7------------------------------|--6--------------------------| 


   T      T      T      T        T      T      T      T 
|-13p8p5-13p8p5-13p8p5-13p8p5-|-13p8p5-13p8p5-13p8p5-13p8p5----| 
|-----------------------------|--------------------------------| 
|-----------------------------|--------------------------------| 
|-----------------------------|--------------------------------| 
|-----------------------------|--------------------------------| 
|-----------------------------|--------------------------------| 
| 
|  TP                            TP 
|-----------------------------|--------------------------------| 
|-----------------------------|--------------------------------| 
|-----------------------------|--------------------------------| 
|-----------------------------|--------------------------------| 
|-----------------------------|--------------------------------| 
|--7--------------------------|--7-----------------------------| 


   T      T      T      T        T      T      T      T 
|-12p7p4-12p7p4-12p7p4-12p7p4-|-12p7p4-12p7p4-12p7p4-12p7p4-| 
|-----------------------------|-----------------------------| 
|-----------------------------|-----------------------------| 
|-----------------------------|-----------------------------| 
|-----------------------------|-----------------------------| 
|-----------------------------|-----------------------------| 
| 
|  TP                            TP 
|-----------------------------|-----------------------------| 
|-----------------------------|-----------------------------| 
|-----------------------------|-----------------------------| 
|-----------------------------|-----------------------------| 
|-----------------------------|-----------------------------| 
|--6--------------------------|--7--------------------------| 


                               2/4 
   T      T      T      T        T      T 
|-13p8p5--------13p8p5-12p7p4-|-13p8p5-12p7p4-| 
|--------13p8p5---------------|---------------| 
|-----------------------------|---------------| 
|-----------------------------|---------------| 
|-----------------------------|---------------| 
|-----------------------------|---------------| 
| 
|  TP                            TP 
|-----------------------------|---------------| 
|-----------------------------|---------------| 
|-----------------------------|---------------| 
|-----------------------------|---------------| 
|-----------------------------|---------------| 
|--6--------------------------|--7------------| 


 Chorus 
  Q=135 
  C#5C5 C#5             G#5   C             G5          C5B5G5 
 3/4           4/4 
  Gtrs I, II 
                PM----|   PM|     PM----|     PM------| 
|-----------||----------------------------|-------------------| 
|-----------||o---------------------------|-------------------| 
|-----------||----------------------------|-------------------| 
|-6--5--6\--||----------------------------|-------------5-4---| 
|-4--3--4\--||o---------6-----4-4---------|-5-----------3-2-5-| 
|-----------||--3-3-3-3-4-3-3-3-3-2-2-2-2-|-3-2-2-2-2-3-----3-| 


          A5    C             G#5         C#C5C#5 
  PM----|   PM|     PM----|     PM------| 
|---------------------------|---------------------|| 
|---------------------------|--------------------o|| 
|---------------------------|---------------------|| 
|---------------------------|-------------6-5-6---|| 
|---------7-----5-5---------|-6-----------4-3-4--o|| 
|-4-4-4-4-5-4-4-4-4-3-3-3-3-|-4-3-3-3-3-4---------|| 


            A#5   C             A5          EbD5A5 
    PM----|   PM|     PM----|     PM------| 
||----------------------------|-------------------| 
||o---------------------------|-------------------| 
||----------------------------|-------------------| 
||----------------------------|-------------8-7---| 
||o---------8-----6-6---------|-7-----------6-5-7-| 
||--5-5-5-5-6-5-5-5-5-4-4-4-4-|-5-4-4-4-4-5-----5-| 


          B5    C             A#5         EbD5Eb5 
  PM----|   PM|     PM----|     PM------| 
|---------------------------|----------------------|| 
|---------------------------|---------------------o|| 
|---------------------------|----------------------|| 
|---------------------------|-------------8-7-8----|| 
|---------9-----7-7---------|-8-----------6-5-6---o|| 
|-6-6-6-6-7-6-6-6-6-5-5-5-5-|-6-5-5-5-5-6----------|| 


 Breakdown 
  Q=200 
  N.C. 
                                                6/4 
  Gtr I 
|------------------|---------------------------|---------------------------| 
|------------------|---------------------------|---------------------------| 
|------------------|---------------------------|---------------------------| 
|------------------|---------------------------|---------------------------| 
|-7----6---5-----5-|---------------------------|-7----6---5-----5---6----7-| 
|----8---7---6-6---|-0-0-0-0-0-0-0-0-0-0-0-0-0-|----8---7---6-6---7----8---| 
| 
| Gtr II 
|------------------|---------------------------|---------------------------| 
|------------------|---------------------------|---------------------------| 
|-9----8---7-----7-|---------------------------|-9----8---7-----7---8----9-| 
|---10---9---8-8---|---------------------------|---10---9---8-8---9---10---| 
|------------------|---------------------------|---------------------------| 
|------------------|-0-0-0-0-0-0-0-0-0-0-0-0-0-|---------------------------| 


|--------------------------------| 
|--------------------------------| 
|--------------------------------| 
|--------------------------------| 
|---------------7----6---5-----5-| 
|-0-0-0-0-0-0-0----8---7---6-6---| 
| 
|--------------------------------| 
|--------------------------------| 
|---------------9----8---7-----7-| 
|-----------------10---9---8-8---| 
|--------------------------------| 
|-0-0-0-0-0-0-0------------------| 


 4/4                         6/4 
|---------------------------|----------------------------| 
|---------------------------|----------------------------| 
|---------------------------|----------------------------| 
|---------------------------|----------------------------| 
|---------------------------|-7----6---5-----5---6----7--| 
|-0-0-0-0-0-0-0-0-0-0-0-0-0-|----8---7---6-6---7----8----| 
| 
|---------------------------|----------------------------| 
|---------------------------|----------------------------| 
|---------------------------|-9----8---7-----7---8----9--| 
|---------------------------|---10---9---8-8---9---10----| 
|---------------------------|----------------------------| 
|-0-0-0-0-0-0-0-0-0-0-0-0-0-|----------------------------| 


  E5 
 4/4 
|----------|-----*| 
|----------|-----*| 
|----------|-----*| 
|----------|-----*| 
|-2--------|-----*| 
|-0--------|-----*| 


Tablature Legend 
---------------- 
 h   - hammer-on 
 p   - pull-off 
 b   - bend 
 pb  - pre-bend 
 r   - bend release (if no number after the r, then release immediately) 
 /  - slide into or out of (from/to "nowhere") 
 s   - legato slide 
 S   - shift slide 
  - natural harmonic 
n  - artificial harmonic 
n(n) - tapped harmonic 
 ~   - vibrato 
 tr  - trill 
 T   - tap 
 TP  - trem. picking 
 PM  - palm muting 
n/  - tremolo bar dip; n = amount to dip 
 n  - tremolo bar down 
 n/  - tremolo bar up 
/n  - tremolo bar inverted dip 
 =   - hold bend; also acts as connecting device for hammers/pulls 
 <>  - volume swell (louder/softer) 
 x   - on rhythm slash represents muted slash 
 o   - on rhythm slash represents single note slash 

Misc Legend 
----------- 
 |  - bar 
||  - double bar 
||o - repeat start 
o|| - repeat end 
*|  - double bar (ending) 
 :  - bar (freetime) 
 $  - Segno 
 &  - Coda 
Tempo markers -  = BPM(8/16=s8/s16), 
where s8 = swing 8ths, s16 = swing 16ths 
		  

See also:

tabs Blind Guardian - Mirror Mirror (Ver.2) tabs Scorpions - I'm Leaving You tabs Scorpions - Wind of Change tabs Scorpions - You and I (acustico) tabs Scorpions - I wanted to cry tabs Blind Guardian - Blood Tears
e-chords

Other versions:

tabs Destruction - Release From Agony
auto scroll beats size up size down change color hide chords drawings
tab show chords e-chords YouTube Clip e-chords hide all tabs e-chords go to top tab

share