Destruction

LIFE WITHOUT SENSE

Destruction

tabs Beginner beginner

by  MATRIZARROJITO

save to print version add songbook text version e-mail correct tuner
chordsukulelecavacokeyboardtabbassdrumsharmonicaflute Guitar Pro
close

there isn't a video lesson for this song

chords

LIFE WITHOUT SENSE

	  		riff 1  
|------------------------------------------------------------------------------------------------------------------------| 
|------------------------------------------------------------------------------------------------------------------------| 
|------------------------------------------------------------------------------------------------------------------------| 
|------------------------------------------------------------------------------------------------------------------------| 
|---2-------2-------2--------4-sl-5------10--------2-------2-------4-sl-5-----8-------2-------2-------4-sl-5-----8-------| 
|---0-0-0-0-0-0-0-0-0-0-0-0--2-sl-3--0-0--8--0-0-0-0-0-0-0-0-0-0-0-2-sl-3-0-0-6-0-0-0-0-0-0-0-0-0-0-0-2-sl-3-0-0-6-0-0---| 
 
|------------------------------------------------------------------------------------------------------------------------| 
|------------------------------------------------------------------------------------------------------------------------| 
|------------------------------------------------------------------------------------------------------------------------| 
|--7-sl-8----------------------------------------------------------------------------------------------------------------| 
|--5-sl-6------7-sl-8----------0-1---------------------------------------------------------------------------------------| 
|----------0-0-5-sl-6--0-0-2-3-------------------------------------------------------------------------------------------| 
 
riff 2 
|------------------------------------------------------------------------------------------------------------------------| 
|------------------------------------------------------------------------------------------------------------------------| 
|------------------------------------------------------------------------------------------------------------------------| 
|------------------------------------------------------------------------------------------------------------------------| 
|---4-------------------4--------------------4------------3-------------------3------3----------------3------------------| 
|---2--2222222222222222-2--22222222222222222-2-....--0-3--1--1111111111111111-1--0-2-1--1111111111111-1-......-----------| 
 
 
riff 3 
|------------------------------------------------------------------------------------------------------------------------| 
|------------------------------------------------------------------------------------------------------------------------| 
|------------------------------------------------------------------------------------------------------------------------| 
|---------------------------------------------8----------------7---------------------------------------------------------| 
|-----2--------8-------3---------8-sl-3-------6-------8--------5--7------------------------------------------------------| 
|-----0--0-0-0-6-0-0-0-1--0-0-0--6-sl-1-0-0-0---0-0-0-6--0-0-0----5------------------------------------------------------| 
 
riff 4 
|------------------------------------------------------------------------------------------------------------------------| 
|------------------------------------------------------------------------------------------------------------------------| 
|------------------------------------------------------------------------------------------------------------------------| 
|----4---5---4---4---4---5---4---4------6---8---7---7---7---8---7---7----------------------------------------------------| 
|--00--0---0---0---0---0---0---0------0---0---0---0---0---0---0---0------------------------------------------------------| 
|------------------------------------------------------------------------------------------------------------------------| 
 
 
riff 5 
|------------------------------------------------------------------------------------------------------------------------| 
|------------------------------------------------------------------------------------------------------------------------| 
|------------------------------------------------------------------------------------------------------------------------| 
|------------------------------------------------------------------------------------------------------------------------| 
|-------2h3p2-----1h2p1------2h3p2--1h2p1--0h1p0-------------------------------------------------------------------------| 
|---0-0-------0-0-------0-0-----------------------0-0--------------------------------------------------------------------| 
 
 
|------------------------------------------------------------------------------------------------------------------------| 
|------------------------------------------------------------------------------------------------------------------------| 
|------------------------------------------------------------------------------------------------------------------------| 
|---------------------------------------------10-------------------------------------------------------------------------| 
|-------2h3p2-----1h2p1-------10p9----10p9-----8-------------------------------------------------------------------------| 
|---0-0-------0-0-------0-0--------0--------0----------------------------------------------------------------------------| 
 
 
singing: 
|------------------------------------------------------------------------------------------------------------------------| 
|------------------------------------------------------------------------------------------------------------------------| 
|------------------------------------------------------------------------------------------------------------------------| 
|------------------------------------------------------------------------------------------------------------------------| 
|------6---7---6---7---6---7---6---7---7---7---7---7---7---7---7---7-----------------------------------------------------| 
|--0-0---0---0---0---0---0---0---0---0---0---0---0---0---0---0---0-------------------------------------------------------| 
 
 
after the solo: 
|------------------------------------------------------------------------------------------------------------------------| 
|------------------------------------------------------------------------------------------------------------------------| 
|------------------------------------------------------------------------------------------------------------------------| 
|---4-5-4----4-5-4---7-8-7-----7-8-7-------------------------------------------------------------------------------------| 
|---2-3-2----2-3-2---5-6-5-----5-6-5-------------------------------------------------------------------------------------| 
|------------------------------------------------------------------------------------------------------------------------| 
 
end: 
|------------------------------------------------------------------------------------------------------------------------| 
|------------------------------------------------------------------------------------------------------------------------| 
|------------------------------------------------------------------------------------------------------------------------| 
|-----5------4-----------------------------------------------------------------------------------------------------------| 
|-----3--5---2---4---2---------------------------------------------------------------------------------------------------| 
|--------3-------2---0---------------------------------------------------------------------------------------------------| 
 
 
 
IN THE MOOD (From "live without sense" album) 
 
 
 
|------------------------------------------------------------------------------------------------------------------------| 
|------------------------------------------------------------------------------------------------------------------------| 
|------------------------------------------------------------------------------------------------------------------------| 
|----------7---7---7---7---7-6-7-----------------------------------------------------------------------------------------| 
|---0-4-7----0---0---0---0-------7----7-6-5-4----------------------------------------------------------------------------| 
|----------------------------------9-----------8-7-6-5-4-----------------------------------------------------------------| 
 
 
 
|------------------------------------------------------------------------------------------------------------------------| 
|------------------------------------------------------------------------------------------------------------------------| 
|------------------------------------------------------------------------------------------------------------------------| 
|--------7---------------------------------------------------------------------------------------------------------------| 
|----4-7----7-4-0--2-4-2-0----2-4-2-0------------------------------------------------------------------------------------| 
|---------------------------2---------2-2--------------------------------------------------------------------------------| 
 
 
 
|------------------------------------------------------------------------------------------------------------------------| 
|------------------------------------------------------------------------------------------------------------------------| 
|------------------------------------------------------------------------------------------------------------------------| 
|--------7-------7-------7-------7-------7-------------------------------------------------------------------------------| 
|---4-7-----4-7-----4-7-----4-7-----4-7----------------------------------------------------------------------------------| 
|------------------------------------------------------------------------------------------------------------------------| 
 
 
|------------------------------------------------------------------------------------------------------------------------| 
|------------------------------------------------------------------------------------------------------------------------| 
|------------------------------------------------------------------------------------------------------------------------| 
|--------7-------7-------7-------7-------7-------------------------------------------------------------------------------| 
|---5-9-----5-9-----5-9-----5-9-----5-9----------------------------------------------------------------------------------| 
|------------------------------------------------------------------------------------------------------------------------| 
 
 
|------------------------------------------------------------------------------------------------------------------------| 
|------------------------------------------------------------------------------------------------------------------------| 
|------------------------------------------------------------------------------------------------------------------------| 
|--------9--------9--------9--------9------------------------------------------------------------------------------------| 
|---7-10-----7-10-----7-10-----7-10--------------------------------------------------------------------------------------| 
|------------------------------------------------------------------------------------------------------------------------| 
 
 
 
|------------------------------------------------------------------------------------------------------------------------| 
|------------------------------------------------------------------------------------------------------------------------| 
|------------------------------------------------------------------------------------------------------------------------| 
|------------6-7-8-7-----------------------------------------------------------------------------------------------------| 
|----6-7-8-9-------------------------------------------------------------------------------------------------------------| 
|------------------------------------------------------------------------------------------------------------------------| 
 
 
 
 
 

		  

See also:

tabs Blind Guardian - Mirror Mirror (Ver.2) tabs Scorpions - I'm Leaving You tabs Scorpions - Wind of Change tabs Scorpions - You and I (acustico) tabs Scorpions - I wanted to cry tabs Blind Guardian - Blood Tears
e-chords

Other versions:

tabs Destruction - LIFE WITHOUT SENSE
auto scroll beats size up size down change color hide chords drawings
tab show chords e-chords YouTube Clip e-chords hide all tabs e-chords go to top tab

share