Destruction

home > Destruction

Antichrist Bass Tab

Destruction

Difficulty: nolevelnolevel

by alexribeiro

tuner correct add songbook print version text version save to e-mail
chordsukulelecavacokeyboardtabbassdrumsharmonicsflute Guitar Pro
chords

Antichrist

  		Riff 1 4x 
D|-12--12-----10--10---7--7----9-----9-----9-----9------- 
A|-10--10-----8---8----5--5----7-----7-----7-----7------- 
E|-------------------------------000---000---000---000--- 

Riff 2  
D|---------|--5--4-------9---5--7--4-4---|----------|-5--4-------9---5--7--- 
A|-2------5|--3--2--5----7---3--5--2-2---|-2------5-|-3--2--5----7---3--5--- 
E|-0-000--3|--------3--------------------|-0-000--3-|-------3--------------- 
        3x                                     3x               

Riff 1 4x 
Riff 2  
Riff 1 4x 

Riff 3 4x 
D|-----5--7---4-----4------- 
A|-5---3--5---2-----2------- 
E|-3------------000---000--- 

Riff 4 4x 
G|-----------------------------5-------------------------7-6-5--- 
D|-9----------5---9------5--4--3---9----------5---9------5-4-3--- 
A|-7------333-3---7------3--2------7------333-3---7-------------- 
E|---000------------000--------------000------------000---------- 

Riff 5 4x 
G|---------3-3---------------------- 
D|-2-------1-1--------2------------ 
A|-0-0000---------000-0--------5--- 
E|-------------------------333-3--- 

Riff 3 8x 
Riff 4 4x 
Riff 5 4x 
Riff 3 8x 
	  

Search Paypal
auto scroll beats size up size down change color hide chords drawings
tab show chords e-chords YouTube Clip e-chords hide all tabs e-chords go to top tab