Destruction

Black Mass

Destruction

tabs

by  ANDRSOUZA

save to print version add songbook text version e-mail correct tuner
chordsukulelecavacokeyboardtabbassdrumsharmonicaflute Guitar Pro
close

there isn't a video lesson for this song

chords

Black Mass

	  		
Riff 1 

E|--------------------------------------------------------------------------------------| 
B|--------------------------------------------------------------------------------------| 
G|-10-------9-------9----10-------9-------9-----------------------10-------9-------9----| 
D|-10-------9-------9----10-------9-------9-10-------9-------9----10-------9-------9----| 
A|-8 -------7-------7----8 -------7-------7-10-------9-------9----8 -------7-------7----| 
E|----00-00---00-00---00----00-00---00-00---8 -77-77-7-77-77-7-77----00-00---00-00---00-| 

Riff 2 

E|---------------------------------------------------------------------| 
B|---------------------------------------------------------------------| 
G|-------------------------------------4-----4-----4---4-----4-----4---| 
D|---------------------5-----5-----5---4-----4-----4---4-----4-----4---| 
A|-3-33-3-33-3-33-3-33-5-----5-----5---2-2-2-2-2-2-2-0-2-2-2-2-2-2-2-0-| 
E|---------------------3-3-3-3-3-3-3-3---------------------------------| 

Riff 3 

E|------------------------------------------------------------------------------------------------| 
B|------------------------------------------------------------------------------------------------| 
G|----------------------------------------------------------------9-----9-----9---9-----9-----9---| 
D|-7-------7-------7----5-------5-------5----3-------3-------3----9-----9-----9---9-----9-----9---| 
A|-7-------7-------7----5-------5-------5----3-------3-------3----7-----7-----7---7-----7-----7---| 
E|-5-55-55-5-55-55-5-55-3-33-33-3-33-33-3-33-1-11-11-1-11-11-1-11---0-0---0-0---0---0-0---0-0---0-| 

  1 
E|----------------------------------------------------------------| 
B|----------------------------------------------------------------| 
G|-5-------5-------5----3-------3-------3----5-------5-------5----| 
D|-5-------5-------5----3-------3-------3----5-------5-------5----| 
A|-3-33-33-3-33-33-3-33-1-11-11-1-11-11-1-11-3-33-33-3-33-33-3-33-| 
E|----------------------------------------------------------------| 

  2 
E|----------------------------------------------------------------------------| 
B|----------------------------------------------------------------------------| 
G|-5-------5-------5----3-------3-------3----5-------5-------5----5--6--7--8--| 
D|-5-------5-------5----3-------3-------3----5-------5-------5----5--6--7--8--| 
A|-3-33-33-3-33-33-3-33-1-11-11-1-11-11-1-11-3-33-33-3-33-33-3-33-3--4--5--6--| 
E|----------------------------------------------------------------------------| 

Riff 4 

E|---------------------------------------------------------------| 
B|---------------------------------------------------------------| 
G|---------9------7----------------------9------7----5-5h7-5-----| 
D|---------9------7----------------------9------7------------5---| 
A|---------7------5--0-0-0-7-5-----------7------5--------------6-| 
E|-0-0-0-0----0-0--------------6-0-0-0-0----0-0----0-------------| 

Riff 5 

E|-------------------------------------------------------------------| 
B|-------------------------------------------------------------------| 
G|-------------------------7-9-7-9-----------------------7-9p7-------| 
D|-------------------5-----7-9-7-9-------------------5---------9-7---| 
A|-------7-5-----------7-----------------7-5-----------7-----------8-| 
E|-0-0-0-----0-7-6-0-----0---------0-0-0-----0-7-6-0-----------------| 

Riff 7 

E|------------------------------------------------------------------------------| 
B|------------------------------------------------------------------------------| 
G|-4----4----5----5----4----4-------------4----4----5----5----4----4----7-6-7-6-| 
D|-4----4----5----5----4----4----5-4-5----4----4----5----5----4----4----7-6-7-6-| 
A|-2-22-2-00-3-33-3-00-2-22-2-22-5-4-5----2-22-2-00-3-33-3-00-2-22-2-00-5-4-5-4-| 
E|-------------------------------3-2-3-22---------------------------------------| 

Riff 6 

E|----------------------------------------------------------------------------------| 
B|----------------------------------------------------------------------------------| 
G|-9----------10-10-------9------------------9----------10-10-------7---5-5h7-5-----| 
D|-9----------10-10-------9------------------9----------10-10-------7-----------5---| 
A|-7----------8 -8 -------7----------0-7-5---7----------8 -8 -------5-------------6-| 
E|---00-00-00-------00-00---00-00-00-------6---00-00-00-------00-00-----------------|

Riff 7A 

E|---------------------------------------| 
B|---------------------------------------| 
G|-------------------------------6-7-6-7-| 
D|-4----4----5----5----4----4----6-7-6-7-| 
A|-4----4----5----5----4----4----4-5-4-5-| 
E|-2-22-2-00-3-33-3-00-2-22-2-00---------| 

Outro 

E|--- ---- ---| 
B|--- ---- ---| 
G|-9- -9*- -9-| 
D|-9- -9*- -9-| 
A|-7- -7*- -7-| 
E|--- ---- ---| 
 
		  

See also:

tabs Blind Guardian - Mirror Mirror (Ver.2) tabs Scorpions - I'm Leaving You tabs Scorpions - Wind of Change tabs Scorpions - You and I (acustico) tabs Scorpions - I wanted to cry tabs Blind Guardian - Blood Tears
e-chords

Other versions:

tabs Destruction - Black Mass tabs Creeper - Black Mass
auto scroll beats size up size down change color hide chords drawings
tab show chords e-chords YouTube Clip e-chords hide all tabs e-chords go to top tab

share