Destruction

CONFOUND GAMES

Destruction

tabs Intermediate intermediate

by  MATRIZARROJITO

save to print version add songbook text version e-mail correct tuner
chordsukulelecavacokeyboardtabbassdrumsharmonicaflute Guitar Pro
close

there isn't a video lesson for this song

chords

CONFOUND GAMES

	  		|------------------------------------------------------------------------------------------------------------------------| 
|------------------------------------------------------------------------------------------------------------------------| 
|------------------------------------------------------------------------------------------------------------------------| 
|------------------------------------------------------------------------------------------------------------------------| 
|-2--4-------2--2-----4-----2-2-------2----------------------------------------------------------------------------------| 
|-0--2--2-2--0--0-----2-2-2-0-0---0-0-0----------------------------------------------------------------------------------| 
 
|------------------------------------------------------------------------------------------------------------------------| 
|------------------------------------------------------------------------------------------------------------------------| 
|------------------------------------------------------------------------------------------------------------------------| 
|------------------------------------------------------------------------------------------------------------------------| 
|------3-2-5-------4-2-2-----------2-2-------------3-2-5---------2-2-----------2-2---------------------------------------| 
|--0-2-------0-2-3-2-0-0-0-0-0-0-2-0-0-0-0-0-0-0-2-------0-2-3-2-0-0-0-0-0-0-2-0-0---------------------------------------| 
 
|------------------------------------------------------------------------------------------------------------------------| 
|------------------------------------------------------------------------------------------------------------------------| 
|------------------------------------------------------------------------------------------------------------------------| 
|---------10----------12-------------------------------------------------------------------------------------------------| 
|----------8----------10----------2-2------------------------------------------------------------------------------------| 
|-0-0-0-0-----0-0-0-0-----0-0-0-0-0-0------------------------------------------------------------------------------------| 
 
|------------------------------------------------------------------------------------------------------------------------| 
|------------------------------------------------------------------------------------------------------------------------| 
|------------------------------------------------------------------------------------------------------------------------| 
|---------10----------12----------12---------10--------------------------------------------------------------------------| 
|----------8----------10----------10----------8--------------------------------------------------------------------------| 
|-0-0-0-0-----0-0-0-0-----0-0-0-0----0-0-0-0-----------------------------------------------------------------------------| 
 
 
|------------------------------------------------------------------------------------------------------------------------| 
|------------------------------------------------------------------------------------------------------------------------| 
|------------------------------------------------------------------------------------------------------------------------| 
|------------------------------------------------------------------------------------------------------------------------| 
|----6H7---6H7-----------------------------------------------------------------------------------------------------------| 
|--0-----0------5--5-5-5-5-5-5-5-----------------------------------------------------------------------------------------| 
 
 
|------------------------------------------------------------------------------------------------------------------------| 
|------------------------------------------------------------------------------------------------------------------------| 
|------------------------------------------------------------------------------------------------------------------------| 
|------------------------------------------------------------------------------------------------------------------------| 
|------------------------------------------------------------------------------------------------------------------------| 
|--0--0-0-0-5-7-0-2-3--0--0-0-0--2H3P2--0--0-0-0-5-7---------------------------------------------------------------------| 
 
 
|------------------------------------------------------------------------------------------------------------------------| 
|------------------------------------------------------------------------------------------------------------------------| 
|------------------------------------------------------------------------------------------------------------------------| 
|------------------------------------------------------------------------------------------------------------------------| 
|------5---5--------5---5---------3---3--------4---4---------------------------------------------------------------------| 
|--2-2---2---2--2-2---2---2---0-0---0---0--2-2---2---2-------------------------------------------------------------------| 
 
 
|------------------------------------------------------------------------------------------------------------------------| 
|------------------------------------------------------------------------------------------------------------------------| 
|------------------------------------------------------------------------------------------------------------------------| 
|------------------------------------------------------------------------------------------------------------------------| 
|------4---4--------4---4------4---4---------4---4-----------------------------------------------------------------------| 
|--3-3---3---3--3-3---3----2-2---2---2---2-2---2---2---------------------------------------------------------------------| 
 
 
|------------------------------------------------------------------------------------------------------------------------| 
|------------------------------------------------------------------------------------------------------------------------| 
|------------------------------------------------------------------------------------------------------------------------| 
|------------------------------------------------------------------------------------------------------------------------| 
|---5-5-5-4-------------------9-9-9----------------------------5-5-5---------------3-3-3-2-------------------------------| 
|---3-3-3-2---2-2-2-2-2...----7-7-7--0-0-0-0-...-4-4-4-4-....--3-3-3-2-2-2-2-....--1-1-1-0--0-0-0-0...-------------------| 
 
 
|------------------------------------------------------------------------------------------------------------------------| 
|------------------------------------------------------------------------------------------------------------------------| 
|------------------------------------------------------------------------------------------------------------------------| 
|----------------------------------------------5-------4-----------------------------7------9------------2----5----------| 
|-----6---9-------7--10------0-2-3-------0-3-0---0---0---2---0--2H3P2------------5-----0--0---7--0-0-2-3----3---000-222--| 
|-0-0---0---0-0-0-------0-0--------3--0------------0-------0----------3-2-0-0-0----0-----0------0----------0-0-----------| 
 
 
|------------------------------------------------------------------------------------------------------------------------| 
|------------------------------------------------------------------------------------------------------------------------| 
|------------------------------------------------------------------------------------------------------------------------| 
|------------------------------------------------------------------------------------------------------------------------| 
|--3-2-------------------------------------------------------------------------------------------------------------------| 
|-------3-2-0------------------------------------------------------------------------------------------------------------| 
 
 
 
 
 
 

		  

See also:

tabs Blind Guardian - Mirror Mirror (Ver.2) tabs Scorpions - I'm Leaving You tabs Scorpions - Wind of Change tabs Scorpions - You and I (acustico) tabs Scorpions - I wanted to cry tabs Blind Guardian - Blood Tears
e-chords

Other versions:

tabs Destruction - CONFOUND GAMES
auto scroll beats size up size down change color hide chords drawings
tab show chords e-chords YouTube Clip e-chords hide all tabs e-chords go to top tab

share