Deep Purple

Smoke On Water (ver. 2)

Deep Purple

tabs Intermediate intermediate

save to print version add songbook text version e-mail correct tuner
chordsukulelecavacokeyboardtabbassdrumsharmonicaflute Guitar Pro
close

there isn't a video lesson for this song

chords

Smoke On Water (ver. 2)

	  		Im 99.99999% sure this is right as i have been told by many experienced players that have also seen Deep Purple them selves play it like this 
 
 
Standard Tuning :E  B  G  D  A  E 
 
 
E|-------------------------------------------------| 
B|-0--3--5----0--3--6-5--3--0----0--3--5--3--0-----| 
G|-0--3--5----0--3--6-5--3--0----0--3--5--3--0-----| 
D|-------------------------------------------------| 
A|-------------------------------------------------| 
E|-------------------------------------------------| 
 
Thats the main Riff 
 
E|----------------------| 
B|----------------------| 
G|----------------------| 
D|-5--5--5--5-----------| 
A|-7--7--7--7--5--5--4--| 
E|-------------7--7--6--| 
 
E|--------------------------------------| 
B|--------------------------------------| 
G|--------------------------------------| 
D|--------------------------------------| 
A|-4--4--4--4--4--4----4--4--4--4--4--4-| 
E|-4--4--6--4--6--4----4--4--6--4--6--4-| 
 
Then somewhere after (i cant really remember where abouts it comes) but that play that but im afraid thats all i can remember i will update when i can actually remember/find out how the rest goes 
 
 
QUALITY 
 
any queries about this tab e mail me on ; [email protected] 
 

		  

Full key step upFull key step up
Half key step upHalf key step up
Half key step downHalf key step down
Full key step downFull key step down
hide glossary

See also:

tabs Billy Idol - White Wedding tabs Heart - Barracuda tabs The Beatles - Let It Be tabs The Shadows - Apache tabs The Cranberries - Ode to my Family tabs Dire Straits - Why Worry
e-chords

Other versions:

tabs Deep Purple - Smoke On Water tabs Deep Purple - Smoke On Water (ver. 2)
auto scroll beats size up size down change color hide chords drawings
tab show chords e-chords YouTube Clip e-chords hide all tabs e-chords go to top tab

share