Deep Purple

Smoke On The Water (Intro + solo 01)

Deep Purple

tabs Easy easy

by  OKIRU

save to print version add songbook text version e-mail correct tuner
chordsukulelecavacokeyboardtabbassdrumsharmonicaflute Guitar Pro
close

there isn't a video lesson for this song

chords

Smoke On The Water (Intro + solo 01)

	  		Smoke on the Water 
De Deep Purple 

Intro: 
1-------------------------------------------- 
2-------------------------------------------- 
3-0--3--5--0--3--6--5--0--3--5--3--0 
4-0--3--5--0--3--6--5--0--3--5--3--0 
5-------------------------------------------- 
6-------------------------------------------- 

Solo: 
1 
2 
3 
4-------5------5-----5-------5--------5----3     ---------6-----5 
5----5------5------5-------5-------5-----3--  3x-----6------5-- 
6-3-------3------3-------3------3------1---      --4-------3----- 
		  

See also:

tabs Santana - Europa tabs Queen - Love of my Life tabs Dire Straits - Sultans of Swing (ao vivo BBC) tabs Eric Clapton - Layla tabs Deep Purple - Deep Purple - Smoke On The Water tabs White Stripes - the seven nation army
e-chords

Other versions:

tabs Deep Purple - Smoke On The Water tabs Jimi Hendrix Experience - Smoke On The Water tabs Eric Clapton - Smoke On The Water tabs Deep Purple - Smoke on the Water (correct) tabs Deep Purple - Smoke On The Water (Easy Intro) tabs Deep Purple - Smoke on the water (easy ver.)
auto scroll beats size up size down change color hide chords drawings
tab show chords e-chords YouTube Clip e-chords hide all tabs e-chords go to top tab

share