Decyfer Down

Scarecrow

Decyfer Down

tabs

by  ADALGOMES

save to print version add songbook text version e-mail correct tuner
chordsukulelecavacokeyboardtabbassdrumsharmonicaflute Guitar Pro
close

there isn't a video lesson for this song

chords

Scarecrow

	  		

Intro: 

D--------------------------------------------------------| 
A--------------------------------------------------------| 
F--------------------------------------------------------| 
C--------------------------------------------------------| 2x 
G----5-----3-----3-----------5-----3-----3---------------| 
C------7~-7--6~-6--5~-53-5~-5--7~-7--6~-6--5~-53-5~-5----| 


D---------------------------------| 
A---------------------------------| 
F----5-7---------10-7-------------| 
C----5-7--0--0--010-7--0--0--0----| 2x 
G----3-5--0--0--08--5--0--0--0----| 
C---------0--0--0------0--0--0----| 


Verse: 

D-------------------------------| 
A-------------------------------| 
F----5-7--------10-7------------| 
C----5-7--0-0--010-7--0-0--0----| 8x 
G----3-5--0-0--08--5--0-0--0----| 
C---------0-0--0------0-0--0----| 


Pre-Chorus 

D--------------------------| 
A--------------------------| 
F--------------------------| 
C--------------------------| 4x 
G--------------------------| 
C----5-35-35-35-10~---8~---| 


Chorus: 

D------------------------------------------------------------------| 
A------------------------------------------------------------------| 
F---------------------------------5--5-5-5-5-5-5-4--4-4-4-4-4-4----| 
C----0--0-0-0-0-2--3--3-3-3-3-3-3-5--5-5-5-5-5-5-4--4-4-4-4-4-4----| 2x 
G----0--0-0-0-0-2--3--3-3-3-3-3-3-3--3-3-3-3-3-3-2--2-2-2-2-2-2----| 
C----0--0-0-0-0-2--3--3-3-3-3-3-3----------------------------------| 

D--------------------------------------------------------------| 
A--------------------------------------------------------------| 
F----3--3--3-3--3--3--3--3-3--3--5--5--5-5--5--5--5--5-5--5----| 
C----3--3--3-3--3--3--3--3-3--3--5--5--5-5--5--5--5--5-5--5----| 
G----1--1--1-1--1--1--1--1-1--1--3--3--3-3--3--3--3--3-3--3----| 
C--------------------------------------------------------------| 


Post-Chorus: 

Guitar 1 
D----10~------8~----8~--------------| 
A-------10~-10--9~-9--8~-86-8~-8----| 
F-----------------------------------| 
C-----------------------------------| 2x 
G-----------------------------------| 
C-----------------------------------| 

Guitar 2 
D--------------------------------------------------------| 
A--------------------------------------------------------| 
F--------------------------------------------------------| 
C--------------------------------------------------------| 
G----5-----3-----3-----------5-----3-----3---------------| 
C------7~-7--6~-6--5~-53-5~-5--7~-7--6~-6--5~-53-5~-5----| 


Verse 

Pre-Chorus 

Chorus 

Post-Chorus 


Bridge: 

D-----------------------------------------------------------| 
A-----------------------------------------------------------| 
F-----------------------------------------------------------| 
C-----------------------------------------------------------| 2x 
G---------------3------------------------3------------------| 
C----6-66666-666-6-66666-6653-6-66666-666-6-66666-5-3-------| 

D---------------------------------| 
A---------------------------------| 
F----5-7---------10-7-------------| 
C----5-7--0--0--010-7--0--0--0----| 
G----3-5--0--0--08--5--0--0--0----| 
C---------0--0--0------0--0--0----| 

D--------------------------------| 
A--------------------------------| 
F----5-7---------10-7------------| 
C----5-7--0--0--010-7------------| 2x 
G----3-5--0--0--08--5-------3~---| 
C---------0--0--0------05p30-----| 


Chorus 2x 

Post-Chorus 2x and slide down from last note to end song 


That's all. Keep rockin' and God bless :) 
		  

See also:

tabs The Strokes - Reptilia(completa) tabs Guns N' Roses - Since I Don't Have You tabs Guns N' Roses - 14 Years tabs Creed - One Last Breath (ver. 2) tabs John Mayer - Daughters tabs Bon Jovi - It's My Life
e-chords

Other versions:

tabs Montgomery Gentry - Scarecrow tabs Decyfer Down - Scarecrow tabs Misfits - Scarecrow Man
auto scroll beats size up size down change color hide chords drawings
tab show chords e-chords YouTube Clip e-chords hide all tabs e-chords go to top tab

share