Decyfer Down

In Due Time

Decyfer Down

tabs

by  DEIVCAVALCANTI

save to print version add songbook text version e-mail correct tuner
chordsukulelecavacokeyboardtabbassdrumsharmonicaflute Guitar Pro
close

there isn't a video lesson for this song

chords

In Due Time

	  		

Intro  (Starts off with a drum breakdown) 

Guitar 1 x2 
D#--------------------------------------------------------------------------| 
A#--------------------------------------------------------------------------| 
F#--------------------------------------------------------------------------| 
C#------0-0-0-0-0-0-0-0-5-5-5-5-5-5-5-5-3-3-3-3-3-3-3-3-3--5-6-7-3--5-6-7-3-| 
G#------0-0-0-0-0-0-0-0-5-5-5-5-5-5-5-5-3-3-3-3-3-3-3-3-3--5-6-7-3--5-6-7-3-| 
C#------0-0-0-0-0-0-0-0-5-5-5-5-5-5-5-5-3-3-3-3-3-3-3-3-3--5-6-7-3--5-6-7-3-| 
pm                                                         . . . .  . . . . 

Guitar 2 
D#---------------------------------------------------------------------------| 
A#------------------------------------------------------------------------17-| 
F#------7-7-7-7-7-7-7-7-5-5-5-5-5-5-5-5-14-14-14-14-14-14-14-14--17-17-17-17-| 
C#------7-7-7-7-7-7-7-7-5-5-5-5-5-5-5-5-x--x--x--x--x--x--x--x---x--x--x--x--| 
G#------5-5-5-5-5-5-5-5-3-3-3-3-3-3-3-3-12-12-12-12-12-12-12-12--15-15-15-15-| 
C#---------------------------------------------------------------------------| 

Guitar 2 continued 
D#----------------------------------------------------------------------| 
A#------------15--------------------------------------------------------| 
F#---15-15-15-15--7-7-7-7-7-7-7-7--14-14--7-7--9-9--10-10--9-9--7-7-5-5-| 
C#---x--x--x--x---7-7-7-7-7-7-7-7--x--x---x-x--x-x--x--x---x-x--x-x-x-x-| 
G#---13-13-13-13--5-5-5-5-5-5-5-5--12-12--5-5--7-7--8--8---7-7--5-5-3-3-| 
C#----------------------------------------------------------------------| 

Break off 1 

Guitar 1 & 2 
D#-----------------------------------------| 
A#-----------------------------------------| 
F#-----------------------------------------| 
C#-----------------------------7*--0-0-0-0-| 
G#---------------------------------0-0-0-0-| 
C#-0-0-0-0--0-0--0--0-0-0-0--0-----0-0-0-0-| 
pm                                 . . . . 

verse 1 

Guitar 1 (No distortion) x2 
D#--------------------------------------------------------------------| 
A#--------------------------------------------------------------------| 
F#-----------------------------------4-4-4-4--4-4--4--5-5-5-5--5-5--5-| 
C#-7-7-7-7--7-7--7--8-8-8-8--8-8--8-----------------------------------| 
G#-5-5-5-5--5-5--5--5-5-5-5--5-5--5--5-5-5-5--5-5--5--5-5-5-5--5-5--5-| 
C#--------------------------------------------------------------------| 

Guitar 2 
D#--------------------------------------------------------------------| 
A#--------------------------------------------------------------------| 
F#-----------------------------------------------------------------7~-| 
C#-----------------------------------------------------------------x~-| 
G#-----------------------------------------------------------------5~-| 
C#--------------------------------------------------------------------| 

Guitar 2 
D#-----------------------------------------------------------------------| 
A#-----------------------------------------------------------------------| 
F#---------------7----------------7----------------5-------------7-9-10~-| 
C#-0-0-0-0--0-0--7--0-0-0-0--0-0--7--3-3-3-3--3-3--5---------7-9---------| 
G#-0-0-0-0--0-0--5--0-0-0-0--0-0--5--3-3-3-3--3-3--3---------------------| 
C#-0-0-0-0--0-0-----0-0-0-0--0-0-----3-3-3-3--3-3-----5-5-5--------------| 
pm . . . .  . .     . . . .  . .     . . . .  . . 

verse 2 

Guitar 1 & 2 
D#----------------------------------------------------------------------| 
A#----------------------------------------------------10-10-10-10-10-10-| 
F#-7-7-7-7~\0-------5-5-5-5~\0-------3-3-3-3~\0-------13-13-13-13-13-13-| 
C#-x-x-x-x-----0-0--x-x-x-x-----0-0--x-x-x-x-----0-0--x--x--x--x--x--x--| 
G#-5-5-5-5~\0--0-0--3-3-3-3~\0--0-0--1-1-1-1~\0--0-0--11-11-11-11-11-11-| 
C#-------------0-0--------------0-0--------------0-0--------------------| 
pm             . .              . .              . . 

Guitar 1 & 2 
D#---------------------------------------------------| 
A#---------------------------------------------------| 
F#-7-7-7-7~\0-------5-5-5-5~\0-------3-3-3-3~\0------| 
C#-x-x-x-x-----0-0--x-x-x-x-----0-0--x-x-x-x-----0-0-| 
G#-5-5-5-5~\0--0-0--3-3-3-3~\0--0-0--1-1-1-1~\0--0-0-| 
C#-------------0-0--------------0-0--------------0-0-| 
pm             . .              . .              . . 

Pre Chorus 

Guitar 1 
D#--------------------------------------------------| 
A#-10-10-10-10-10-10---------10-10-10-10-10-10------| 
F#-13-13-13-13-13-13---------13-13-13-13-13-13------| 
C#-x--x--x--x--x--x----------x--x--x--x--x--x-------| 
G#-11-11-11-11-11-11---------11-11-11-11-11-11------| 
C#--------------------------------------------------| 

Guitar 2 
D#---------------------------------------------------| 
A#-10-10-10-10-10-10---------10-10-10-10-10-10-------| 
F#-13-13-13-13-13-13---------13-13-13-13-13-13-ps/15-| 
C#-x--x--x--x--x--x----------x--x--x--x--x--x--ps/15-| 
G#-11-11-11-11-11-11---------11-11-11-11-11-11-ps/15-| 
C#---------------------------------------------------| 

Chorus 

Guitar 1 x2 
D#--------------------------------------------------------------------------| 
A#--------------------------------------------------------------------------| 
F#--------------------------------------------------------------------------| 
C#------0-0-0-0-0-0-0-0-5-5-5-5-5-5-5-5-3-3-3-3-3-3-3-3-3--5-6-7-3--5-6-7-3-| 
G#------0-0-0-0-0-0-0-0-5-5-5-5-5-5-5-5-3-3-3-3-3-3-3-3-3--5-6-7-3--5-6-7-3-| 
C#------0-0-0-0-0-0-0-0-5-5-5-5-5-5-5-5-3-3-3-3-3-3-3-3-3--5-6-7-3--5-6-7-3-| 
pm                                                         . . . .  . . . . 

Guitar 2 
D#---------------------------------------------------------------------------| 
A#------------------------------------------------------------------------17-| 
F#------7-7-7-7-7-7-7-7-5-5-5-5-5-5-5-5-14-14-14-14-14-14-14-14--17-17-17-17-| 
C#------7-7-7-7-7-7-7-7-5-5-5-5-5-5-5-5-x--x--x--x--x--x--x--x---x--x--x--x--| 
G#------5-5-5-5-5-5-5-5-3-3-3-3-3-3-3-3-12-12-12-12-12-12-12-12--15-15-15-15-| 
C#---------------------------------------------------------------------------| 

Guitar 2 continued 
D#----------------------------------------------------------------------| 
A#------------15--------------------------------------------------------| 
F#---15-15-15-15--7-7-7-7-7-7-7-7--14-14--7-7--9-9--10-10--9-9--7-7-5-5-| 
C#---x--x--x--x---7-7-7-7-7-7-7-7--x--x---x-x--x-x--x--x---x-x--x-x-x-x-| 
G#---13-13-13-13--5-5-5-5-5-5-5-5--12-12--5-5--7-7--8--8---7-7--5-5-3-3-| 
C#----------------------------------------------------------------------| 

Break off 1 

Guitar 1 & 2 
D#-----------------------------------------| 
A#-----------------------------------------| 
F#-----------------------------------------| 
C#-----------------------------7*--0-0-0-0-| 
G#---------------------------------0-0-0-0-| 
C#-0-0-0-0--0-0--0--0-0-0-0--0-----0-0-0-0-| 
pm                                 . . . . 

verse 1 

Guitar 1 (No distortion) x2 
D#--------------------------------------------------------------------| 
A#--------------------------------------------------------------------| 
F#-----------------------------------4-4-4-4--4-4--4--5-5-5-5--5-5--5-| 
C#-7-7-7-7--7-7--7--8-8-8-8--8-8--8-----------------------------------| 
G#-5-5-5-5--5-5--5--5-5-5-5--5-5--5--5-5-5-5--5-5--5--5-5-5-5--5-5--5-| 
C#--------------------------------------------------------------------| 

Guitar 2 
D#--------------------------------------------------------------------| 
A#--------------------------------------------------------------------| 
F#-----------------------------------------------------------------7~-| 
C#-----------------------------------------------------------------x~-| 
G#-----------------------------------------------------------------5~-| 
C#--------------------------------------------------------------------| 

Guitar 2 
D#-----------------------------------------------------------------------| 
A#-----------------------------------------------------------------------| 
F#---------------7----------------7----------------5-------------7-9-10~-| 
C#-0-0-0-0--0-0--7--0-0-0-0--0-0--7--3-3-3-3--3-3--5---------7-9---------| 
G#-0-0-0-0--0-0--5--0-0-0-0--0-0--5--3-3-3-3--3-3--3---------------------| 
C#-0-0-0-0--0-0-----0-0-0-0--0-0-----3-3-3-3--3-3-----5-5-5--------------| 
pm . . . .  . .     . . . .  . .     . . . .  . . 

verse 2 

Guitar 1 & 2 
D#----------------------------------------------------------------------| 
A#----------------------------------------------------10-10-10-10-10-10-| 
F#-7-7-7-7~\0-------5-5-5-5~\0-------3-3-3-3~\0-------13-13-13-13-13-13-| 
C#-x-x-x-x-----0-0--x-x-x-x-----0-0--x-x-x-x-----0-0--x--x--x--x--x--x--| 
G#-5-5-5-5~\0--0-0--3-3-3-3~\0--0-0--1-1-1-1~\0--0-0--11-11-11-11-11-11-| 
C#-------------0-0--------------0-0--------------0-0--------------------| 
pm             . .              . .              . . 

Guitar 1 & 2 
D#---------------------------------------------------| 
A#---------------------------------------------------| 
F#-7-7-7-7~\0-------5-5-5-5~\0-------3-3-3-3~\0------| 
C#-x-x-x-x-----0-0--x-x-x-x-----0-0--x-x-x-x-----0-0-| 
G#-5-5-5-5~\0--0-0--3-3-3-3~\0--0-0--1-1-1-1~\0--0-0-| 
C#-------------0-0--------------0-0--------------0-0-| 
pm             . .              . .              . . 

Pre Chorus 

Guitar 1 
D#--------------------------------------------------| 
A#-10-10-10-10-10-10---------10-10-10-10-10-10------| 
F#-13-13-13-13-13-13---------13-13-13-13-13-13------| 
C#-x--x--x--x--x--x----------x--x--x--x--x--x-------| 
G#-11-11-11-11-11-11---------11-11-11-11-11-11------| 
C#--------------------------------------------------| 

Guitar 2 
D#---------------------------------------------------| 
A#-10-10-10-10-10-10---------10-10-10-10-10-10-------| 
F#-13-13-13-13-13-13---------13-13-13-13-13-13-ps/15-| 
C#-x--x--x--x--x--x----------x--x--x--x--x--x--ps/15-| 
G#-11-11-11-11-11-11---------11-11-11-11-11-11-ps/15-| 
C#---------------------------------------------------| 

Chorus x2 

Guitar 1 x2 
D#--------------------------------------------------------------------------| 
A#--------------------------------------------------------------------------| 
F#--------------------------------------------------------------------------| 
C#------0-0-0-0-0-0-0-0-5-5-5-5-5-5-5-5-3-3-3-3-3-3-3-3-3--5-6-7-3--5-6-7-3-| 
G#------0-0-0-0-0-0-0-0-5-5-5-5-5-5-5-5-3-3-3-3-3-3-3-3-3--5-6-7-3--5-6-7-3-| 
C#------0-0-0-0-0-0-0-0-5-5-5-5-5-5-5-5-3-3-3-3-3-3-3-3-3--5-6-7-3--5-6-7-3-| 
pm                                                         . . . .  . . . . 

Guitar 2 
D#---------------------------------------------------------------------------| 
A#------------------------------------------------------------------------17-| 
F#------7-7-7-7-7-7-7-7-5-5-5-5-5-5-5-5-14-14-14-14-14-14-14-14--17-17-17-17-| 
C#------7-7-7-7-7-7-7-7-5-5-5-5-5-5-5-5-x--x--x--x--x--x--x--x---x--x--x--x--| 
G#------5-5-5-5-5-5-5-5-3-3-3-3-3-3-3-3-12-12-12-12-12-12-12-12--15-15-15-15-| 
C#---------------------------------------------------------------------------| 

Guitar 2 continued 
D#----------------------------------------------------------------------| 
A#------------15--------------------------------------------------------| 
F#---15-15-15-15--7-7-7-7-7-7-7-7--14-14--7-7--9-9--10-10--9-9--7-7-5-5-| 
C#---x--x--x--x---7-7-7-7-7-7-7-7--x--x---x-x--x-x--x--x---x-x--x-x-x-x-| 
G#---13-13-13-13--5-5-5-5-5-5-5-5--12-12--5-5--7-7--8--8---7-7--5-5-3-3-| 
C#----------------------------------------------------------------------| 
Breakdown 1 

Guitar 1 
D#------------------------------| 
A#------------------------------| 
F#------------------------------| 
C#--------------------0--0--0-0-| 
G#-------3------------0--0--0-0-| 
C#-1--0-----0--6~~~~~-0--0--0-0-| 
pm                    .  .  . . 

Guitar 2 
D#------------------------------| 
A#------------------------------| 
F#------------------------------| 
C#--------------------0--0--0-0-| 
G#--------------------0--0--0-0-| 
C#--------------------0--0--0-0-| 
pm                    .  .  . . 

Guitar 1 & 2 
D#-------------------------------------------------------------| 
A#-------------------------------------------------------------| 
F#-------------------------------------------------------------| 
C#--------------------0--0-0-0-0--------------------0--0-0-0-0-| 
G#-------3------------0--0-0-0-0-------3------------0--0-0-0-0-| 
C#-1--0-----0--6~~~~~-0--0-0-0-0-1--0-----0--6~~~~~-0--0-0-0-0-| 
pm                    .  . . . .                    .  . . . . 

Guitar 1 & 2 
D#-----------------------------------------------------------------| 
A#-----------------------------------------------------------------| 
F#-----------------------------------------------------------------| 
C#--------------------0-0-0-0-0-0-0-0--7*---------------------ps\0-| 
G#-------3------------0-0-0-0-0-0-0-0------------3------------ps\0-| 
C#-1--0-----0--6~~~~~-0-0-0-0-0-0-0-0------1--0-----0--6~~~~~-ps\0-| 

Chorus 

Guitar 1 x2 
D#--------------------------------------------------------------------------| 
A#--------------------------------------------------------------------------| 
F#--------------------------------------------------------------------------| 
C#------0-0-0-0-0-0-0-0-5-5-5-5-5-5-5-5-3-3-3-3-3-3-3-3-3--5-6-7-3--5-6-7-3-| 
G#------0-0-0-0-0-0-0-0-5-5-5-5-5-5-5-5-3-3-3-3-3-3-3-3-3--5-6-7-3--5-6-7-3-| 
C#------0-0-0-0-0-0-0-0-5-5-5-5-5-5-5-5-3-3-3-3-3-3-3-3-3--5-6-7-3--5-6-7-3-| 
pm                                                         . . . .  . . . . 

Guitar 2 
D#---------------------------------------------------------------------------| 
A#------------------------------------------------------------------------17-| 
F#------7-7-7-7-7-7-7-7-5-5-5-5-5-5-5-5-14-14-14-14-14-14-14-14--17-17-17-17-| 
C#------7-7-7-7-7-7-7-7-5-5-5-5-5-5-5-5-x--x--x--x--x--x--x--x---x--x--x--x--| 
G#------5-5-5-5-5-5-5-5-3-3-3-3-3-3-3-3-12-12-12-12-12-12-12-12--15-15-15-15-| 
C#---------------------------------------------------------------------------| 

Guitar 2 continued 
D#----------------------------------------------------------------------| 
A#------------15--------------------------------------------------------| 
F#---15-15-15-15--7-7-7-7-7-7-7-7--14-14--7-7--9-9--10-10--9-9--7-7-5-5-| 
C#---x--x--x--x---7-7-7-7-7-7-7-7--x--x---x-x--x-x--x--x---x-x--x-x-x-x-| 
G#---13-13-13-13--5-5-5-5-5-5-5-5--12-12--5-5--7-7--8--8---7-7--5-5-3-3-| 
C#----------------------------------------------------------------------| 
Guitar 1 x2 
D#--------------------------------------------------------------------------| 
A#--------------------------------------------------------------------------| 
F#--------------------------------------------------------------------------| 
C#------0-0-0-0-0-0-0-0-5-5-5-5-5-5-5-5-3-3-3-3-3-3-3-3-3--5-6-7-3--5-6-7-3-| 
G#------0-0-0-0-0-0-0-0-5-5-5-5-5-5-5-5-3-3-3-3-3-3-3-3-3--5-6-7-3--5-6-7-3-| 
C#------0-0-0-0-0-0-0-0-5-5-5-5-5-5-5-5-3-3-3-3-3-3-3-3-3--5-6-7-3--5-6-7-3-| 
pm                                                         . . . .  . . . . 

Guitar 2 
D#---------------------------------------------------------------------------| 
A#------------------------------------------------------------------------17-| 
F#------7-7-7-7-7-7-7-7-5-5-5-5-5-5-5-5-14-14-14-14-14-14-14-14--17-17-17-17-| 
C#------7-7-7-7-7-7-7-7-5-5-5-5-5-5-5-5-x--x--x--x--x--x--x--x---x--x--x--x--| 
G#------5-5-5-5-5-5-5-5-3-3-3-3-3-3-3-3-12-12-12-12-12-12-12-12--15-15-15-15-| 
C#---------------------------------------------------------------------------| 

Guitar 2 continued 
D#--------------------------------------------------------| 
A#------------15------------------------------------------| 
F#---15-15-15-15--7-7-7-7-7-7-7-7--14-14--7-7--9-9--10-10-| 
C#---x--x--x--x---7-7-7-7-7-7-7-7--x--x---x-x--x-x--x--x--| 
G#---13-13-13-13--5-5-5-5-5-5-5-5--12-12--5-5--7-7--8--8--| 
C#--------------------------------------------------------| 

Break off 2 

Guitar 1 x4 
D#-------------------| 
A#-------------------| 
F#-------------------| 
C#-5-6-7-3--5-6-7-3--| 
G#-5-6-7-3--5-6-7-3--| 
C#-5-6-7-3--5-6-7-3--| 
pm . . .    . . . 

Guitar 2 
D#---------------------------------------------------------------------------| 
A#---------------------------------------------------------------------------| 
F#-9-9-9-9--7-7-7-7--9-9-9-9--7-7-7-7--9-9-9-9--7-7-7-7--9-9-9-9-10-10-10-10-| 
C#-x-x-x-x--x-x-x-x--x-x-x-x--x-x-x-x--x-x-x-x--x-x-x-x--x-x-x-x-x--x--x--x--| 
G#-7-7-7-7--5-5-5-5--7-7-7-7--5-5-5-5--7-7-7-7--5-5-5-5--7-7-7-7-8--8--8--8--| 
C#---------------------------------------------------------------------------| 

Breakdown 2 

Guitar 1 x3 
D#-----------------------------------------------------------------| 
A#-----------------------------------------------------------------| 
F#-----------------------------------------------------------------| 
C#-0-0-0-0-0-0-0-0-3-3-3-3-3-3-3-3-5-5-5-5-5-5-5-5-7-7-7-7-7-7-7-7-| 
G#-0-0-0-0-0-0-0-0-3-3-3-3-3-3-3-3-5-5-5-5-5-5-5-5-7-7-7-7-7-7-7-7-| 
C#-0-0-0-0-0-0-0-0-3-3-3-3-3-3-3-3-5-5-5-5-5-5-5-5-7-7-7-7-7-7-7-7-| 

Guitar 2 (not 100% sure about this part, SORRY) 
D#---------9h10----------------------9h10------------      | 
A#---------------------------------------------------      | 
F#-7p5-7p5------7p5-----5p7--7p5-7p5------7p5-----5p7      | 
C#------------------5p7-----------------------5h7----      | 
G#---------------------------------------------------      | 
C#---------------------------------------------------      | 
                                                           | 
Guitar 2 continued                                         |- x3 
D#---------9h10--------------10/13-12-11--12-10-8--------- | 
A#-------------------------------------------------12-10-8 | 
F#-7p5-7p5------7p5-----5p7------------------------------- | 
C#------------------5p7----------------------------------- | 
G#-------------------------------------------------------- | 
C#-------------------------------------------------------- | 

Guitar 1 
D#-------------------------------------------------| 
A#-------------------------------------------------| 
F#-------------------------------------------------| 
C#-0-0-0-0-0-0-0-0-3-3-3-3-3-3-3-3-5-5-5-5-5-5-5-5-| 
G#-0-0-0-0-0-0-0-0-3-3-3-3-3-3-3-3-5-5-5-5-5-5-5-5-| 
C#-0-0-0-0-0-0-0-0-3-3-3-3-3-3-3-3-5-5-5-5-5-5-5-5-| 

Guitar 2 
D#---------9h10----------------------9h10------------ | 
A#--------------------------------------------------- | 
F#-7p5-7p5------7p5-----5p7--7p5-7p5------7p5-----5p7 | 
C#------------------5p7-----------------------5h7---- | 
G#--------------------------------------------------- | 
C#--------------------------------------------------- | 
                                                      | 
Guitar 2 continued                                    |- x3 
D#---------9h10--------------                         | 
A#---------------------------                         | 
F#-7p5-7p5------7p5-----5p7--                         | 
C#------------------5p7------                         | 
G#---------------------------                         | 
C#---------------------------                         | 

Outro 

Guitar 1 
D#---------------------------------------------------------------------------| 
A#---------------------------------------------------------------------------| 
F#---------------------------------------------------------------------------| 
C#-7--7--0-0-0-0-0-0--7--7--0-0-0-0-0-0--7--7--0-0-0-0-0-0--0~~~~~~~~~~~~~~~-| 
G#-7--7--0-0-0-0-0-0--7--7--0-0-0-0-0-0--7--7--0-0-0-0-0-0--0~~~~~~~~~~~~~~~-| 
C#-7--7--0-0-0-0-0-0--7--7--0-0-0-0-0-0--7--7--0-0-0-0-0-0--0~~~~~~~~~~~~~~~-| 

Guitar 2 
D#--------------------------------------------------------------------------| 
A#-11b-11b-11b~~~~~~--11b-11b-11b~~~~~~--15b-15b-15b~~~~~\13b~~~~~~~~-------| 
F#-13b-13b-13b~~~~~~--13b-13b-13b~~~~~~--17b-17b-17b~~~~~\15b~~~~~~~~-------| 
C#--------------------------------------------------------------------------| 
G#--------------------------------------------------------------------------| 
C#--------------------------------------------------------------------------| 
		  

See also:

tabs The Strokes - Reptilia(completa) tabs Guns N' Roses - Since I Don't Have You tabs Guns N' Roses - 14 Years tabs Creed - One Last Breath (ver. 2) tabs John Mayer - Daughters tabs Bon Jovi - It's My Life
e-chords

Other versions:

tabs KillSwitch Engage - In Due Time tabs Decyfer Down - In Due Time
auto scroll beats size up size down change color hide chords drawings
tab show chords e-chords YouTube Clip e-chords hide all tabs e-chords go to top tab

share