Decyfer Down

Anchor Me

Decyfer Down

tabs

by  JESSGOMES

save to print version add songbook text version e-mail correct tuner
chordsukulelecavacokeyboardtabbassdrumsharmonicaflute Guitar Pro
close

there isn't a video lesson for this song

chords

Anchor Me

	  		
Tuning Bb F Bb Eb G C 

Intro 

C |--------------------------------------------------------------| 
G |--------------------------------------------------------------| 
Eb|--------------------------------------------------------------| 
Bb|--------------------------------------------------------------| 
F |---------------------------------------------------------5b---| 
Bb|-0-2-2-3---2p0-2-5-2-0-2-8-5-7---0-2-2-3---2p0-2-5-2-0-2------| 

                                  PM-----------------------------|      
C |---------------------------------------------------------------| 
G |---------------------------------------------------------------| 
Eb|---------------------------------------------------------------| 
Bb|---------------------------------------------------------------| 
F |---------------------------------------------------------------| 
Bb|-0-2-2-3---2p0-2-5-2-0-2-8-5-7---0-0-0-0--0--0-0-0-0--0-0-0-0--| 
                                     
C |--------------------------------------------------------------| 
G |--------------------------------------------------------------| 
Eb|--------------------------------------------------------------| 
Bb|--------------------------------------------------------------| 
F |---------------------------------------------------------5b---| 
Bb|-0-2-2-3---2p0-2-5-2-0-2-8-5-7---0-2-2-3---2p0-2-5-2-0-2------| 

C |-------------------------------------------| 
G |-------------------------------------------| 
Eb|-------------------------------------------| 
Bb|---------------------------------0---------| 
F |---------------------------------0---------| 
Bb|-0-2-2-3--p2-0-2-5-2-0-2-8-5-7---0---------| 


verse 1 

C |-------------------------------------------------| 
G |-------------------------------------------------| 
Eb|-------------------------------------------------| 
Bb|-------------------------------------------------| 
F |-------------------------------------------------| 
Bb|-0-2-2-2--0-2-2-2--3-2-2-2-0-2-2-2--0-2-2-2--3---| 
                                                       x2 
C |-------------------------------------| 
G |-------------------------------------| 
Eb|-------------------------------------| 
Bb|---------------------------5----0----| 
F |---------------------------5----0----| 
Bb|-0-2-2-2--0-2-2-2--3-2-2-2-5----0----| 


Pre-Chorus 1 

C |-----------------------------------------------------------------| 
G |-----------------------------------------------------------------| 
Eb|-5----5-5--5-5-5-4----4-4--4-4-4---------------------------------| 
Bb|-3----3-3--3-3-3-4----4-4--4-4-4-0----0-0--0-0-0-0----0-0--0-0-0-| 
F |-3----3-3--3-3-3-2----2-2--2-2-2-0----0-0--0-0-0-0----0-0--0-0-0-| 
Bb|---------------------------------0----0-0--0-0-0-0----0-0--0-0-0-| 

                                   PM-------------|  
C |-----------------------------------------------------------------| 
G |-----------------------------------------------------------------| 
Eb|-5----5-5--5-5-5-4----4-4--4-4-4---------------------------------| 
Bb|-3----3-3--3-3-3-4----4-4--4-4-4-----------------0-0-0-0-0-0-0-0-| 
F |-3----3-3--3-3-3-2----2-2--2-2-2-----------------0-0-0-0-0-0-0-0-| 
Bb|---------------------------------0-0-0-0-0-0-0-0-0-0-0-0-0-0-0-0-| 
                                     

Chorus 1 

C |-----------------------------------------------------| 
G |-----------------------------------------------------| 
Eb|---------------------------5--5--5-5-5---------------| 
Bb|-2--2--2-2-2--0--0--0-0-0--3--3--3-3-3--0--0--0-0-0--| 
F |-2--2--2-2-2--0--0--0-0-0--3--3--3-3-3--0--0--0-0-0--| 
Bb|-2--2--2-2-2--0--0--0-0-0---------------0--0--0-0-0--| 

C |-----------------------------------------------------------| 
G |-----------------------------------------------------------| 
Eb|---------------------------2-2-2-2-2-2-2-2-5-5-5-5-7-7-7-7-| 
Bb|-2--2--2-2-2--0--0--0-0-0--0-0-0-0-0-0-0-0-5-5-5-5-7-7-7-7-| 
F |-2--2--2-2-2--0--0--0-0-0--0-0-0-0-0-0-0-0-3-3-3-3-5-5-5-5-| 
Bb|-2--2--2-2-2--0--0--0-0-0----------------------------------| 


Post-Chorus 

C |---------------------------------------------------------| 
G |---------------------------------------------------------| 
Eb|---------------------------------------------------------| 
Bb|---------------------------------------------------------| 
F |---------------------------------------------------------| 
Bb|-0-2-2-3---2p0-2-5-2-0-2-8-5-7---0-2-2-3---2p0-2-5-2-0-2-| 


verse 2 

C |-------------------------------------------------| 
G |-------------------------------------------------| 
Eb|-------------------------------------------------| 
Bb|-------------------------------------------------| 
F |-------------------------------------------------| 
Bb|-0-2-2-2--0-2-2-2--3-2-2-2-0-2-2-2--0-2-2-2--3---| 
                                                       x2 
C |-------------------------------------| 
G |-------------------------------------| 
Eb|-------------------------------------| 
Bb|---------------------------5----0----| 
F |---------------------------5----0----| 
Bb|-0-2-2-2--0-2-2-2--3-2-2-2-5----0----| 


Pre-Chorus 2 

C |-----------------------------------------------------------------| 
G |-----------------------------------------------------------------| 
Eb|-5----5-5--5-5-5-4----4-4--4-4-4---------------------------------| 
Bb|-3----3-3--3-3-3-4----4-4--4-4-4-0----0-0--0-0-0-0----0-0--0-0-0-| 
F |-3----3-3--3-3-3-2----2-2--2-2-2-0----0-0--0-0-0-0----0-0--0-0-0-| 
Bb|---------------------------------0----0-0--0-0-0-0----0-0--0-0-0-| 

                                    PM-------------| 
C |-----------------------------------------------------------------| 
G |-----------------------------------------------------------------| 
Eb|-5----5-5--5-5-5-4----4-4--4-4-4---------------------------------| 
Bb|-3----3-3--3-3-3-4----4-4--4-4-4-----------------0-0-0-0-0-0-0-0-| 
F |-3----3-3--3-3-3-2----2-2--2-2-2-----------------0-0-0-0-0-0-0-0-| 
Bb|---------------------------------0-0-0-0-0-0-0-0-0-0-0-0-0-0-0-0-| 
                                     

Chorus 2 

C |-----------------------------------------------------| 
G |-----------------------------------------------------| 
Eb|---------------------------5--5--5-5-5---------------| 
Bb|-2--2--2-2-2--0--0--0-0-0--3--3--3-3-3--0--0--0-0-0--| 
F |-2--2--2-2-2--0--0--0-0-0--3--3--3-3-3--0--0--0-0-0--| 
Bb|-2--2--2-2-2--0--0--0-0-0---------------0--0--0-0-0--| 
                                                                    x2 
C |-----------------------------------------------------------| 
G |-----------------------------------------------------------| 
Eb|---------------------------2-2-2-2-2-2-2-2-5-5-5-5-7-7-7-7-| 
Bb|-2--2--2-2-2--0--0--0-0-0--0-0-0-0-0-0-0-0-5-5-5-5-7-7-7-7-| 
F |-2--2--2-2-2--0--0--0-0-0--0-0-0-0-0-0-0-0-3-3-3-3-5-5-5-5-| 
Bb|-2--2--2-2-2--0--0--0-0-0----------------------------------| 


Bridge 

C |-----------------------------------------------------------------| 
G |-----------------------------------------------------------------| 
Eb|-----------------------------------------------------------------| 
Bb|-----------------------------------------------------------------| 
F |--------------------------------5------------------------------5-| 
Bb|-2--1--0--2--1-0--2--1--0--8--7----2--1--0--2--1-0--2--1--0--7---| 

C |----------------------------------------------------------------| 
G |----------------------------------------------------------------| 
Eb|----------------------------------------------------------------| 
Bb|----------------------------------------------------------------| 
F |---------------5-------------5----------------5-----------------| 
Bb|-2--1--0--8--7----2--1--0--7----2--1--0--8--7----2--1--0--7-5---| 


Pre-Chorus 3 

(Lead Guitar with distortion and heavy reverb only. Let all notes ring) 

C |-20-------19-------------| 
G |---------------17--------| 
Eb|-------------------------| 
Bb|-------------------------| 
F |-------------------------| 
Bb|-------------------------| 


Chorus 3 

C |-----------------------------------------------------------| 
G |-----------------------------------------------------------| 
Eb|---------------------------2-2-2-2-2-2-2-2-5-5-5-5-7-7-7-7-| 
Bb|-2--2--2-2-2--0--0--0-0-0--0-0-0-0-0-0-0-0-5-5-5-5-7-7-7-7-| 
F |-2--2--2-2-2--0--0--0-0-0--0-0-0-0-0-0-0-0-3-3-3-3-5-5-5-5-| 
Bb|-2--2--2-2-2--0--0--0-0-0----------------------------------| 

C |-----------------------------------------------------| 
G |-----------------------------------------------------| 
Eb|---------------------------5--5--5-5-5---------------| 
Bb|-2--2--2-2-2--0--0--0-0-0--3--3--3-3-3--0--0--0-0-0--| 
F |-2--2--2-2-2--0--0--0-0-0--3--3--3-3-3--0--0--0-0-0--| 
Bb|-2--2--2-2-2--0--0--0-0-0---------------0--0--0-0-0--| 

C |-----------------------------------------------------------| 
G |-----------------------------------------------------------| 
Eb|---------------------------2-2-2-2-2-2-2-2-5-5-5-5-7-7-7-7-| 
Bb|-2--2--2-2-2--0--0--0-0-0--0-0-0-0-0-0-0-0-5-5-5-5-7-7-7-7-| 
F |-2--2--2-2-2--0--0--0-0-0--0-0-0-0-0-0-0-0-3-3-3-3-5-5-5-5-| 
Bb|-2--2--2-2-2--0--0--0-0-0----------------------------------| 


Outro 

C |--------------------------------------------------------------| 
G |--------------------------------------------------------------| 
Eb|--------------------------------------------------------------| 
Bb|--------------------------------------------------------------| 
F |---------------------------------------------------------5b---| 
Bb|-0-2-2-3---2p0-2-5-2-0-2-8-5-7---0-2-2-3---2p0-2-5-2-0-2------| 
   
                                   PM----------------------------| 
C |---------------------------------------------------------------| 
G |---------------------------------------------------------------| 
Eb|---------------------------------------------------------------| 
Bb|---------------------------------------------------------------| 
F |---------------------------------------------------------------| 
Bb|-0-2-2-3---2p0-2-5-2-0-2-8-5-7---0-0-0-0--0--0-0-0-0--0-0-0-0--| 
                                     
C |----------------------------------------------| 
G |----------------------------------------------| 
Eb|----------------------------------------------| 
Bb|-2---------------1---------------0------------| 
F |-2---------------1---------------0------------| 
Bb|-2---------------1---------------0------------| 



*********************************** 
| p   Pull-off 
| b   Bend 
| PM  Palm mute  
*********************************** 
		  

See also:

tabs The Strokes - Reptilia(completa) tabs Guns N' Roses - Since I Don't Have You tabs Guns N' Roses - 14 Years tabs Creed - One Last Breath (ver. 2) tabs John Mayer - Daughters tabs Bon Jovi - It's My Life
e-chords

Other versions:

tabs Decyfer Down - Anchor Me
auto scroll beats size up size down change color hide chords drawings
tab show chords e-chords YouTube Clip e-chords hide all tabs e-chords go to top tab

share