Creedence Clearwater Revival

home > Creedence Clearwat...

Fortunate Son Tab

Creedence Clearwater Revival

Difficulty: EasyEasy

by CarlosBruxel

tuner correct add songbook print version text version save to e-mail
chordsukulelecavacokeyboardtabbassdrummharmonicsflute Guitar Pro
chords

Fortunate Son

Year: 1973 - Album: Chronicle, Vol. 1: The 20 Greatest Hits

(J.Fogerty/ Creedence Clearwater Revival)

  		
Intro:  

e|----------------------------------------------------------------  
B|-------8-------6-------5-------3--------------------------------  
G|----------------------------------------------------------------  
D|-7/9------3/7-----2/5-----2/5-----------------------------------  
A|----------------------------------------------------------------  
E|----------------------------------6p3~\-------------------------  

Riff 1:  

e|----------------------------------------------------------------  
B|--3-------------------------------------------------------------  
G|--3-------------------------------------------------------------  
D|-----5p3-----3h5~-----------------------------------------------  
A|----------5-----------------------------------------------------  
E|----------------------------------------------------------------  

Blue note sobre G  

G5  D5  C5  

e|----------------------------------------------------------------  
B|----------------------3b4---------------------------------------  
G|------5~--3--2--------3b4---------------------------------------  
D|----------------4/5--------5~-----------------------------------  
A|-6/7------------------------------------------------------------  
E|----------------------------------------------------------------  

Solo:  

e|----------------------------------------------------------------  
B|-6--5--5\1--1--1/3--6--6--5--5\---------------------------------  
G|-7--6--6\2--2--2/4--7--7--6--6\---------------------------------  
D|----------------------------------------------------------------  
A|----------------------------------------------------------------  
E|----------------------------------------------------------------  

e|----------------------------------------------------------------  
B|-6--5--5\1--1--1/3--6--5--5\1--1--1/3---------------------------  
G|-7--6--6\2--2--2/4--7--6--6\2--2--2/4---------------------------  
D|----------------------------------------------------------------  
A|----------------------------------------------------------------  
E|----------------------------------------------------------------  



	  

Full key step upFull key step up
Half key step upHalf key step up
Half key step downHalf key step down
Full key step downFull key step down
Search Paypal
auto scroll beats size up size down change color hide chords drawings
tab show chords e-chords YouTube Clip e-chords hide all tabs e-chords go to top tab