Creedence Clearwater Revival

home > Creedence Clearwat...

Bad Moon Rising Drop D Tab

Creedence Clearwater Revival

Difficulty: BeginnerBeginner

tuner correct add songbook print version text version save to e-mail
chordsukulelecavacokeyboardtabbassdrumsharmonicsflute Guitar Pro
chords

Bad Moon Rising Drop D

  		 
CCR... 
BAD MOON RISING PUNK STILE! 
TUNNING: DADGBE DROP D 
INTRO 
|-2-2-22-------3--------------------------------| 
|-3-3-33---2---3--------------------------------| 
|-2-2-22---2---0--------------------------------| 
|-0-0-00---2------------------------------------| 
|---------0-------------------------------------| 
|-------------5---------------------------------| 
W/HEAVY DISTORTION 
|---------------------| 
|---------------------| 
|---------------------| 
|-0-0-0-0-0-0-0-0-0-0-| 
|-0-0-2-0-0-2-0-0-2-0-| 
|-0-0-0-0-0-0-0-0-0-0-| 
 
|------------------------------| 
|------------------------------| 
|------------------------------| 
|-0-0-00-7-7-5-5-0-0-0-0-0-0-0-| 
|-0-0-00-7-7-5-5-0-0-2-0-0-2-0-| 
|-0-0-00-7-7-5-5-0-0-0-0-0-0-0-| 
CHORUS 
|------------------------------------------------------| 
|------------------------------------------------------| 
|------------------------------------------------------| 
|-5-5-5-5-5-5--0-0-0-0-0--0-0-00-7-7-5-5-0-0-0-0-0-0-0-| 
|-5-5-5-5-5-5--0-0-0-0-0--0-0-00-7-7-5-5-0-0-2-0-0-2-0-| 
|-5-5-5-5-5-5--0-0-0-0-0--0-0-00-7-7-5-5-0-0-0-0-0-0-0-| 
 
SAME SOLO AS USAULL... 
 
PLAY THE SONG AS ORIGNLY PLAYED EXEPT IN DROP D CHORDS... 
PRETTY COOL ONCE YOU FIGURE IT OUT DROP D NOT REALLY ALL  
THAT HARD TO FIGURE OUT....USE LOTS OF DISTORTION!!!!!! 
 
 
 
END. 
 

	  

Search Paypal
auto scroll beats size up size down change color hide chords drawings
tab show chords e-chords YouTube Clip e-chords hide all tabs e-chords go to top tab