Coal Chamber

Shock The Monkey

Coal Chamber

tabs

save to print version add songbook text version e-mail correct tuner
chordsukulelecavacokeyboardtabbassdrumsharmonicaflute Guitar Pro
close

there isn't a video lesson for this song

chords

Shock The Monkey

	  		Song: Shock the monkey 
Album: Chamber Music 
Artisit: Coal Chamber Feat. Ozzy Osbourne 
Tabbed By: Shane Dupuis 
Verse 
b------------------------------------- 
G------------------------------------ 
D------------------------------------- 
A----2-2-5-2-2-------------------- 
E----2-2-5-2-2-------------------- 
A----2-2-5-2-2-------------------- 
 
Chorus 
d------------------------------------ 
A----------------------------------- 
F----------------------------------- 
C----5----------------------------- 
G----5----------------------------- 
C----5----------------------------- 
 
Bridge 
d------------------------------------ 
A----------------------------------- 
F----------------------------------- 
C---5---------------------2-------- 
G---5---------------------2-------- 
C---5---------------------2-------- 
 
The End 
d-------- 
A------- 
F------- 
C-5-5-5 
G-5-5-5 
C-5-5-5 
If it's wrong don't get mad i wasn't trying to play I was just fooling around with my guitar and it sounded like it. So i checked it with the song and it sounds right 
 

		  

See also:

tabs Deftones - Change tabs Velvet Revolver - Fall to pieces tabs Darkness - I Believe in a Thing Called Love tabs Lifehouse - Blind Acoustic tabs Queens Of The Stone Age - Go with the Flow tabs Black Crowes - Remedy
e-chords

Other versions:

tabs Coal Chamber - Shock The Monkey tabs Coal Chamber - Shock The Monkey (ver. 2)
auto scroll beats size up size down change color hide chords drawings
tab show chords e-chords YouTube Clip e-chords hide all tabs e-chords go to top tab

share