save to print version add songbook text version e-mail correct tuner
chordsukulelecavacokeyboardtabbassdrumsharmonicaflute Guitar Pro
close

there isn't a video lesson for this song

chords

I

	  		Guitarist: Miguel "meegs" Rascon 
Tabbed By: Brandon Moroch ([email protected]) 
Tuning:    A,E,A,D,g,b 
KEY: *     = palm mute       / = slide 
     X++++ = pick scrapes    t = tap  
    {#}    = feedback        ^ = bend 
 
 
I tabbed out all the different parts for this song. You can  
figure out the order. Listen to the album. not a difficult  
song to learn. Intro and ending bridge riff are cool to play. 
 
 
|------------------------------------------------| 
|------------------------------------------------| 
|----------------{6}-----------------------------| 
|----------------{0}-------X+++++++--------------| 
|---X+++++++/10-------X++++++--------\X++++++++--| 
|--X+++++++/10-------x++++++--------\X++++++-----| 
 
                                               
|---------------------||--------------------| 
|---------------------||--------------------| 
|---------------------||--------------------| 
|---------------------||--------------------| 
|-2--0-3-5--0-3--1-3--||-2--0--3-1--1--1-1--| 
|-2--0-3-5--0-3--1-3--||-2--0--3-1--1--1-1--| 
                                    *  * * 
 
|----------------------|-----------------------| 
|----------------------|-----------------------| 
|----------------------|-----------------------| 
|----------------------|-----------------------| 
|----------------------|-----------------------|  
|--2--0-3-5--0-3--1-3--|--2--0-3--5--0-3-1--3--|   
   *  * * *  * *  * *     *  * *  *  * * *  * 
 
 
|-----------------||----------------|      
|-----------------||----------------|     
|-----------------||----------------|     
|-----------------||----------------|     
|-----------------||----------------|     
|-3-2-1-3-2---3-2-||---3-2-1-3-2-1--|      
  * * * * *   * *      * * * * * * 
 
 
|------------------|-------------| 
|------------------|-------------| 
|------------------|-------------| 
|------------------|-------------|  
|-3-2-1-3-2---3-2--|--3-2-1-2-2--| 
|-3-2-1-3-2---3-2--|--3-2-1-2-2--| 
 
w/ delay 
|-------------t13----||--t13-------------| 
|---tt11-------------||------t11---------| kind of tap these notes 
|---------t9---------||--------------t9^-| and pick scrape them 
|--------------------||------------------| at the same time, to get a 
|--------------------||------------------| twangy type sound 
|--------------------||------------------| 
 

		  

See also:

tabs Deftones - Change tabs Velvet Revolver - Fall to pieces tabs Darkness - I Believe in a Thing Called Love tabs Lifehouse - Blind Acoustic tabs Queens Of The Stone Age - Go with the Flow tabs Black Crowes - Remedy
e-chords

Other versions:

tabs Taproot - "i" tabs Britney Spears - (i Got It All) Boom Boom tabs Britney Spears - (I Got that ) Boom Boom tabs Black Sabbath - (Iron Man) tabs Black Sabbath - I tabs Coal Chamber - I
auto scroll beats size up size down change color hide chords drawings
tab show chords e-chords YouTube Clip e-chords hide all tabs e-chords go to top tab

share