Coal Chamber

Clock (ver. 2)

Coal Chamber

tabs

save to print version add songbook text version e-mail correct tuner
chordsukulelecavacokeyboardtabbassdrumsharmonicaflute Guitar Pro
close

there isn't a video lesson for this song

chords

Clock (ver. 2)

	  		Artist: Coal chamber 
Song: clock 
Tabbed by: rap_sucks 
 
Intro  
E--------------------  
B--------------------  
G--1-2-3-2--1-2-3-1--  
D--------------------  
A--------------------  
E--------------------  
*Not sure about this  
  
Riff1, Palm where needed  
D-----------  
A-44--4-3---repeat  
E-22--2-5---  
  
Then  
E-------------------  
B-------------------  
G-1-2-3-2--1-3-2-1--  
  
Verse, palm muting  
D-----------------------------  
A-----------------------------  
E-1-2-3-2-1--1-1--0-1--3-2-1--  
  
Riff2 still "clock, it count my fears"  
D---------------------  
A-4-5-0--4-4-5--0-----  
E-2-3-0--2-2-3--0-----  
  
Riff-2.5 (Played on top of Riff2)  
D--------  
A-4---44--repeat  
E-2---22--  
  
Riff3 "you can do better"  
E---0------------------  
B---0------------------  
B---0------------------  
D-4----4/5-0--5-4--0---repeat  
A-4----4/5-0--5-4--0---  
E-2----2/3-0--3-2--0---  
  
Thing  
A-2-2-2-2-2--2-2--2-2--3--  
E-2-2-2-2-2--2-2--2-2--3--repeat 
 

		  

See also:

tabs Isaac Albeniz - Asturias (Leyenda) tabs Iron Butterfly - IronButterfly-in A Gadda Da Vida tabs Black Crowes - Jealous Again tabs Chris Cornell - Black Hole Sun tabs Hoobastank - The Reason Acoustic tabs Black Crowes - Hard To Handle
e-chords

Other versions:

tabs Coal Chamber - Clock tabs Coal Chamber - Clock (ver. 2) tabs Jason Mraz - Clock watching tabs Devo - Clockout tabs Oceans Ate Alaska - Clocks tabs Steve Hackett - Clocks
auto scroll beats size up size down change color hide chords drawings
tab show chords e-chords YouTube Clip e-chords hide all tabs e-chords go to top tab

share