Classic American Music

Star Spangled Banner

Classic American Music

tabs Expert expert

by  SKIPPER3

save to print version add songbook text version e-mail correct tuner
chordsukulelecavacokeyboardtabbassdrumsharmonicaflute Guitar Pro
close

there isn't a video lesson for this song

chords

Star Spangled Banner

	  		              

E--------------------------------------------------- 
B--------------------------------------------------- 
G--------------------------9-7---------------------- 
D---------------------10--------10------------------ 
A--10--7------7---10-----------------7---9--10------ 
E----------8---------------------------------------- 


E--------------------------------------------------- 
B--------------------------------------------------- 
G-----------9--7------------------------------------ 
D------------------10--9--7--9--10---10------------- 
A--10---10-------------------------------10---7----- 
E------------------------------------------------8-- 


E--------------------------------------------------- 
B----------------8--8------------------------------- 
G--9--9--9--10---------10--9--7--9--10--10---------- 
D--------------------------------------------------- 
A--------------------------------------------------- 
E--------------------------------------------------- 

E--------------------------------------------------- 
B--------------------------------------------------- 
G--10--9--7----------------------------------------- 
D------------10--9--7--9--10------------------------ 
A-----------------------------7--9--10-------------- 
E--------------------------------------------------- 

E--------------------------------------------------- 
B--------------------------------------------------- 
G-----------------------------7--10--9--7----------- 
D-----10--10--10--9--7--7--7---------------10--10--9 
A--10----------------------------------------------- 
E--------------------------------------------------- 

E--------------------------------------------------- 
B------------------------8-------------------------- 
G--------------7--9--10---------7--9--10--7--------- 
D----------10---------------10---------------10----- 
A--10--10------------------------------------------- 
E--------------------------------------------------- 

		  

See also:

tabs Punch Brothers - Flippenthe Flip tabs Punch Brothers - Another New World tabs Punch Brothers - You Are tabs Johann Pachelbel - Canon in D tabs Raphael Patkanian - Armenian lullaby Oror tabs Barsegh Kanachyan - Armenian National Anthem
e-chords

Other versions:

tabs Francis Scott Key - Star Spangled Banner tabs Jimi Hendrix Experience - Star Spangled Banner tabs Star Spangled Banner - Star Spangled Banner tabs Weezer - Star Spangled Banner tabs Zakk Wylde - Star Spangled Banner tabs Classic American Music - Star Spangled Banner
auto scroll beats size up size down change color hide chords drawings
tab show chords e-chords YouTube Clip e-chords hide all tabs e-chords go to top tab

share