Jimi Hendrix Experience

Star Spangled Banner

Jimi Hendrix Experience

tabs Beginner beginner

save to print version add songbook text version e-mail correct tuner
chordsukulelecavacokeyboardtabbassdrumsharmonicaflute Guitar Pro
close

there isn't a video lesson for this song

chords

Star Spangled Banner

	  		
Hey this is my first tab so i hope u like it also look out 4 my 2 bands
 that im in untitled and tedan 
e-------------------------------------------------------- 
B-------------------------------------------------------- 
D-----------5-9-7-5-------0-0-9-7-5-4-2-4-5-5------------ 
G-5-2---2-5---------2-4-5---------------------5-2-------- 
A-----3-------------------------------------------3------ 
E-------------------------------------------------------- 
 
e-------------------------------------------------------- 
B-------------------------------------------------------- 
D-----------5-9-7-5-------0-0-9-7-5-4-2-4-5-5------------ 
G-5-2---2-5---------2-4-5---------------------5-2-------- 
A-----3-------------------------------------------3------ 
E-------------------------------------------------------- 
 
e-------------------------------------------------------- 
B-------------------------------------------------------- 
D-9-9-9-10-12-12-10-9-7-9-10-10-10-9-7-5-4-2-4-5--------- 
G------------------------------------------------2-4-5--- 
A-------------------------------------------------------- 
E-------------------------------------------------------- 
 
e-------------------------------------------------------------------- 
B-------------------------------------------------------------------- 
D-0-5-5-5-4-2-2-2-7-10-9-7-5-4----0-0-5-7-9-10-12-5-7-9-10-7-5------- 
G-------------------------------------------------------------------- 
A-------------------------------------------------------------------- 
E-------------------------------------------------------------------- 
 

		  

See also:

tabs Simon & Garfunkel - Sounds of silence tabs R.E.M. - Everybody Hurts tabs Guns N' Roses - Knockin' On Heaven's Door tabs John Mayer - Belief tabs The Wonders - That Thing You Do tabs Cheap Trick - The Flame
e-chords

Other versions:

tabs Francis Scott Key - Star Spangled Banner tabs Jimi Hendrix Experience - Star Spangled Banner tabs Star Spangled Banner - Star Spangled Banner tabs Weezer - Star Spangled Banner tabs Zakk Wylde - Star Spangled Banner tabs Classic American Music - Star Spangled Banner
auto scroll beats size up size down change color hide chords drawings
tab show chords e-chords YouTube Clip e-chords hide all tabs e-chords go to top tab

share