Barsegh Kanachyan

Armenian National Anthem

Barsegh Kanachyan

tabs Expert expert

by  HAYASER

save to print version add songbook text version e-mail correct tuner
chordsukulelecavacokeyboardtabbassdrumsharmonicaflute Guitar Pro
close

there isn't a video lesson for this song

chords

Armenian National Anthem

	  		 
Standard tuning : Eadgbe 
 
-------------------------------|-------------------------------| 
-------------------------------|-------------------------------| 
----7------5---4---0-----------|7------5---4---0---------------| 
-------------------------------|-------------------------------| (1) 
-------------------------------|-------------------------------| 
-------------------------------|-------------------------------| 
  Mer    hayrenik                azad   angakh 
 
-------------------------------|-------------------------------| 
-------------------------------|-------------------------------| 
--9----11-12--14/12--11--9---7-|--9----11-12--14---7--5-4---0--| 
-------------------------------|-------------------------------| (2) 
-------------------------------|-------------------------------| 
-------------------------------|-------------------------------| 
  vor   abrele       tar eh tar  Ir vor tika    art ganchoom eh  
 
-------------------------------|-------------------------------| 
-------------------------------|-------------------------------| 
--2----4--5---7/5--4--5--7-----|--9----11-12--14---7--5-4---0--| 
-------------------------------|-------------------------------| (3) 
-------------------------------|-------------------------------| 
-------------------------------|-------------------------------| 
 Azad, angakh  haiasdan         Ir vor tika    art ganchoom eh  
 
-------------------------------| 
-------------------------------| 
--2----4--5---7/5--4--2--0-----| (4) 
-------------------------------| 
-------------------------------| 
-------------------------------| 
 Azad, angakh  haiasdan. 
 
Same notes with the rest of the song 
 
Aha yeghpair kez mi trosh, (1) 
Zor im tzerkov kordzetzi   (2) 
Keeshernera yes koon chega,(3) 
Ardasoonkov luvatzi.       (4) 
 
Nayir neran yerek kooynov,     (1) 
Nuviragan mer nushan,          (2) 
Togh poghpoghi tushnamoo tem,  (3) 
Togh meesht bandza Haiastan.   (4) 
 
Amenayn degh maha mi eh   (1) 
Mart mee ankam bid merni, (2) 
Paytz yerani vor ir azki  (3) 
Azadootyan ga tzohvi.     (4) 
 
 

		  

See also:

tabs Punch Brothers - Flippenthe Flip tabs Carulli - Country Dance tabs Johann Pachelbel - Cannon in D tabs Carulli - Waltz in Em tabs Punch Brothers - You Are tabs American Folk Song - Yankee Doodle
e-chords

Other versions:

tabs Barsegh Kanachyan - Armenian National Anthem
auto scroll beats size up size down change color hide chords drawings
tab show chords e-chords YouTube Clip e-chords hide all tabs e-chords go to top tab

share