Cinderella

Nobodys Fool

Cinderella

tabs Advanced advanced

save to print version add songbook text version e-mail correct tuner
chordsukulelecavacokeyboardtabbassdrumsharmonicaflute Guitar Pro
close

there isn't a video lesson for this song

chords

Nobodys Fool

	  		
By:T.J. 
This is my first tab and it is a 100% correct.HAVE FUN AND ENJOY! 
This is the rythme part. 
LISTEN TO THE SONG FOR RIGHT TIMING. 
Standard Tuning 
/=slide 
 
1--------0-----------1-----------0-----------3----- 
2-----1-----1-----3-----3-----1-----1-----3-----3-- 
3--------------------------------------------------   2 times 
4-------------------------------------------------- 
5--0-----------0-----------0-----------0----------- 
6-------------------------------------------------- 
 
1----------------------- 
2--------------------3-- 
3-----0-----0-----3-----     
4--------0-----0--------    
5--3-------------------- 
6----------------------- 
 
1--------- 
2--------- 
3---------   
4--------- 
5--2/3-0-- 
6--------- 
 
PLAY OVER  (about 6 to 8) 
 

		  

See also:

tabs Jack Johnson - Good People tabs Rage Against The Machine - Killing In The Name (ver. 2) tabs Blue Oyster Cult - Dont Fear The Reaper tabs R.E.M. - Losing my religion tabs Smashing Pumpkins - Today tabs Foo Fighters - Learn to Fly (acoustic version)
e-chords

Other versions:

tabs Avril Lavigne - Nobody's Fool (intro) tabs Cinderella - Nobodys Fool
auto scroll beats size up size down change color hide chords drawings
tab show chords e-chords YouTube Clip e-chords hide all tabs e-chords go to top tab

share