Chet Atkins

home > Chet Atkins

El Condor Pasa Tab

Chet Atkins

Difficulty: nolevelnolevel

by terr%5Fschmitz

tuner correct add songbook print version text version save to e-mail
chordsukulelecavacokeyboardtabbassdrumsharmonicsflute Guitar Pro
chords

El Condor Pasa

	  Gtr I (D A D G B E) - 'Acoustic Guitar ' 

 Gtr II (E A D G B E) - 'Rhythm Guitar ' 




  Q=140(8=s8) 
             $ 
 4/4 
  Gtr I 
  H    Q  Q    Q  Q  Q  Q    Q  Q  Q  Q      Q  Q  Q  Q 
|------------|-------------|-------------||--2------------| 
|------------|----------2--|-3--2--3--5--||o----3-----3---| 
|---------4--|-4--3--4-----|-------------||-----2-----2---| 
|---------4--|-4-----------|-------------||-----4-----4---| 
|------------|-2-----------|-------------||o-------0------| 
|------------|-------------|-------------||--0------------| 
                                             Q  H     Q 


  Q  H     Q    H     Q  Q    Q   Q   Q   Q     E  E H     Q 
|-------5--5--|-2-----------|----------------|----------------| 
|----3-----3--|----3-----3--|----10--12--10--|-12p10-7--------| 
|----2-----2--|----2-----2--|----11--12--11--|-12p11-7-----7--| 
|----4-----4--|----4-----4--|-----0-------0--|-------0-----0--| 
|-------------|-------0-----|---------0------|----------0-----| 
|-0-----0-----|-0-----------|-0--------------|--0-------------| 
  Q  Q  Q  Q    Q  Q  Q  Q                      E  E Q  Q  Q 


  Q  H     Q     Q  H     Q    H     Q  Q    Q  H     Q 
|--------------|-------------|-------------|-------------| 
|----7---------|-------------|-------3-----|-0-----------| 
|----9--9--7-4-|----4-----4--|----4-----4--|----4-----4--| 
|----8---------|----4-----4--|----4-----4--|----4-----4--| 
|--------------|-2-----------|-2-----------|-2-----------| 
|-8------------|-------4-----|-------------|-------4-----| 
  Q  Q  Q  E E   Q  Q  Q  Q    Q  H     Q    Q  Q  Q  Q 


  1.                                         2. 
         D.S. 
  Q  H    Q    Q  Q  Q  Q    Q  Q  Q  Q      Q  H     Q 
|------------|-------------|--------------||--------------| 
|------------|----------2--|-3--2--3--5--o||-0------------| 
|----4-------|-4--3--4-----|-4------------||----4-----4\--| 
|----4----4--|-4-----------|-4------------||----4-----4---| 
|-2----------|-2-----------|-2-----------o||-2------------| 
|------------|-------------|--------------||--------------| 
               H     H       W               H     Q  Q 


    H     E E Q    Q  Q  E E Q    H     H       H     Q  Q 
||--7-------5----|-7--5--7-5----|-7-----------|------10--7---| 
||o-8-------7----|-8--7--8-7----|-8-----------|------12--8---| 
||--7-------7----|-7--7--7-7----|-7-----------|--------------| 
||-----5------5--|----5------5--|----5-----5--|--------------| 
||o-------5------|-------5------|-------5-----|--------------| 
||--5------------|-5------------|-5-----------|-5------------| 
    Q  Q  E E Q    Q  H      Q    Q  Q  Q  Q 


                                             1. 
  Q  Q  E E Q    Q  Q  E E Q    H     H       H     H 
|-5-------5----|-5--5--7-5----|-------------|--------------|| 
|-7-------7----|-7--7--8-7----|-7-----------|-------7-----o|| 
|-7-------7----|-7--7--7-7----|-7-----------|-------7------|| 
|----0------0--|----0------0--|----0-----0--|----0-----0---|| 
|-------0------|-------0------|-------0-----|-------0-----o|| 
|-0------------|-0------------|-0-----------|-0------------|| 
  H     E E Q                   Q  Q  Q  Q    Q  Q  Q  Q 


  2.                                                   Q=130 
  Q   H     Q     Q  H     Q    H     Q  Q    Q  H     Q 
|---------------|-------------|-------------|-------------| 
|-----7---------|-------------|-------3-----|-0-----------| 
|----^9--9--7-4-|----4-----4--|----4-----4--|----4-----4--| 
|----^8---------|----4-----4--|----4-----4--|----4-----4--| 
|---------------|-2-----------|-2-----------|-2-----------| 
|-8-------------|-------4-----|-------------|-------4-----| 
  Q   Q  Q  E E   Q  Q  Q  Q    Q  H     Q    Q  Q  Q  Q 


  Q=120         Q=90 
  H     Q  Q      W 
|-------------|---------*| 
|-------3-----|-^<0>----*| 
|----4-----4--|-^-4-----*| 
|----4-----4--|-^-4-----*| 
|-2-----------|-^-2-----*| 
|-------------|---------*| 
  Q  H     Q 


 
	  

there isn't a video lesson for this song

request
Search
auto scroll beats size up size down change color hide chords drawings
tab show chords e-chords YouTube Clip e-chords hide all tabs e-chords go to top tab