Jim Croce

Time In A Bottle

Jim Croce

tabs Expert expert

by  EUROPEU

save to print version add songbook text version e-mail correct tuner
chordsukulelecavacokeyboardtabbassdrumsharmonicaflute Guitar Pro
close

there isn't a video lesson for this song

chords

Time In A Bottle

Year: 1972 - Album: Classic Hits

(Jim Croce)

	  		----------------|----------------|---------------|-------------|------------- 
10-------10-----|-10------10-----|-10---10---10--|-8-----8-----|-8---5---6--- 
------10------10|------10------10|---------------|-----7---7---|------------- 
----0-------0---|----0-------0---|----0----0----0|---0-------0-|---0---0---0- 
----------------|----------------|---------------|-------------|------------- 
10--------------|-9--------------|-8-------------|-7-----------|-6---6---6--- 
 
-------------|-------------|-12----10-----9s10s9--|----------------- 
-8---6---5---|-2---3---5---|--------------9s10s9--|-10------10------ 
-------------|-------------|----12----10----------|------10----10--- 
---0---0---0-|---2---5---7-|----------------------|----0----------0- 
-------------|-0---0---0---|-0------0-----0-------|----------------- 
-6---5---3---|-------------|----------------------|-10-------------- 
 
-----------------|-------------|-3-----3-----|-------1-----|-3-----3----- 
-10------10------|-8-----8-----|---3-----3---|-----3---3---|------------- 
------10----10---|-----7---7---|-----3-----3-|---2-------0-|---3-----3--- 
----0----------0-|---8-------0-|-------------|-0-----------|------------- 
-----------------|-------------|-------------|-------------|------------- 
-8---------------|-6-----------|-3-----------|-------------|-3----------- 
Chorus: 
-----------|--------------|---------10-------|---------9------|-------1----- 
2---3---5--|-2h3p2-0------|------10----10----|------10---10---|-----2---2--- 
----3-----0|-----------2--|---11----------11-|---11--------11-|---3-------3- 
--2---5---7|---------0---0|-0----------------|-0--------------|-0----------- 
0---0---0--|-0------------|------------------|----------------|------------- 
-----------|--------------|------------------|----------------|------------- 
 
-------5-----|-----0-------|-----0-------|-----0-------|---------------- 
-----7---7---|---------0---|---------0---|---------0---|---------------- 
---7-------7-|---7---7---7-|---7---7---7-|---7---7---0-|-6---7---9------ 
-0-----------|-9-----------|-7-----------|-5-----------|---7---9---11--- 
-------------|-------------|-------------|-------------|-0---0---0------ 
-------------|-------------|-------------|-------------|---------------- 

		  

See also:

tabs Bluegrass - Whiskey Before Breakfast tabs James Taylor - Youve Got A Friend (ver. 2) tabs Garth Brooks - The Dance - Fingerstyle tabs Crosby, Stills, Nash & Young - Suite Judy Blue Eyes tabs Jimmy Buffett - A Pirate Looks At Forty Solo (correct) tabs Alan Jackson - Chattahoochee Correct
e-chords

Other versions:

tabs Jim Croce - Time In A Bottle
auto scroll beats size up size down change color hide chords drawings
tab show chords e-chords YouTube Clip e-chords hide all tabs e-chords go to top tab

share