John Mellencamp

Jack And Diane

John Mellencamp

tabs Easy easy

save to print version add songbook text version e-mail correct tuner
chordsukulelecavacokeyboardtabbassdrumsharmonicaflute Guitar Pro
close

there isn't a video lesson for this song

chords

Jack And Diane

	  		Standard Tuning: EADGBe 
 
INTRO 
 
  (Let Ring)                . 
e|--5-----5--5--4--4--5--4--2------------------------------| 
B|--5-----5--5--5--5--5--5--3------------------------------| 
G|--6-----6--6--4--4--6--4--2--x-x---------x-x-x-x---------| 
D|--7-----7--7--6--6--7--6--4--x-x-0-0-----x-x-x-x-0-0-----| 
A|-----------------------------x-x---------x-x-x-x---------| 
E|---------------------------------------------------------| 
#|  1  2  3  4  1  2  3  4  1  2     3 4  1    2     3  4 
 
 
VERSE 1 
 
e|--5--7--x-x--4----4--4--x-x-2--x-2--x-4----5--4--x-x-----| 
B|--5--5--x-x--5----5--5--x-x-3--x-3--x-5----5--5--x-x-----| 
G|--6--6--x-x--4----4--4--x-x-2--x-2--x-4----4--4--x-x-----| 
D|---------------------------------------------------------| 
A|---------------------------------------------------------| 
E|---------------------------------------------------------| 
#|  1     2      3     4      1    2    3       4 
 
e|--5--7--x-x--4----4--4--x-x-2--x-4--x-5----5--5--x-x-----| 
B|--5--5--x-x--5----5--5--x-x-3--x-5--x-5----5--5--x-x-----| 
G|--6--6--x-x--4----4--4--x-x-2--x-4--x-6----6--6--x-x-----| 
D|---------------------------------------------------------| 
A|---------------------------------------------------------| 
E|---------------------------------------------------------| 
#|  1     2      3     4      1    2    3       4 
 
Play twice, then: 
 
 
FIRST INTERLUDE 
 
e|---------------------------------------------------------| 
B|--2--3--2--3/5-------5----x-x-3--x-3--5--5--5--x-x-------| 
G|--2--2--2--2/4-------4----x-x-2--x-2--4--6--4--x-x-------| 
D|--2--4--2--4/6-------6----x-x-4--x-4--6--6--6--x-x-------| 
A|------------------0--------------------------------------| 
E|---------------------------------------------------------| 
#|  1     2       3    4        1    2  &3 &  4 
 
e|---------------------------------------------------------| 
B|--2--3--2--3/5-------5----x-x-3--x-3--2>-------x-x-------| 
G|--2--2--2--2/4-------4----x-x-2--x-2--2>-------x-x-------| 
D|--2--4--2--4/6-------6----x-x-4--x-4--2>-------x-x-------| 
A|------------------0--------------------------------------| 
E|---------------------------------------------------------| 
#|  1     2       3    4        1    2  &  3  4 
 
 
VERSE 2 
 
e|--5--7--x-x--4----4--4--x-x-2--x-2--x-4----5--4--x-x-----| 
B|--5--5--x-x--5----5--5--x-x-3--x-3--x-5----5--5--x-x-----| 
G|--6--6--x-x--4----4--4--x-x-2--x-2--x-4----4--4--x-x-----| 
D|---------------------------------------------------------| 
A|---------------------------------------------------------| 
E|---------------------------------------------------------| 
#|  1     2      3     4      1    2    3       4 
 
e|--5--7--x-x--4----4--4--x-x-2--x-4--x-5----5--5--x-x-----| 
B|--5--5--x-x--5----5--5--x-x-3--x-5--x-5----5--5--x-x-----| 
G|--6--6--x-x--4----4--4--x-x-2--x-4--x-6----6--6--x-x-----| 
D|---------------------------------------------------------| 
A|---------------------------------------------------------| 
E|---------------------------------------------------------| 
#|  1     2      3     4      1    2    3       4 
 
(play twice) 
 
 
CHORUS 
 
e|--5--7--x-x--4----4--4--x-x-2--x-2--x-4----5--4--x-x-----| 
B|--5--5--x-x--5----5--5--x-x-3--x-3--x-5----5--5--x-x-----| 
G|--6--6--x-x--4----4--4--x-x-2--x-2--x-4----4--4--x-x-----| 
D|---------------------------------------------------------| x 3 
A|---------------------------------------------------------| 
E|---------------------------------------------------------| 
#|  1     2      3     4      1    2    3       4 
 
e|--5--7--x-x--4----4--4--x-x-2--x-4--x-5>-----------------| 
B|--5--5--x-x--5----5--5--x-x-3--x-5--x-5>-----------------| 
G|--6--6--x-x--4----4--4--x-x-2--x-4--x-6>-----------------| 
D|---------------------------------------------------------| x 1 
A|---------------------------------------------------------| 
E|---------------------------------------------------------| 
#|  1     2      3     4      1    2    3       4 
                                           "Now walk on..." 
 
SECOND INTERLUDE 
 
e|--5-----5--5--4--4--5--4--2------------------------------| 
B|--5-----5--5--5--5--5--5--3------------------------------| 
G|--6-----6--6--4--4--6--4--2--x-x---------x-x-x-x---------| 
D|--7-----7--7--6--6--7--6--4--x-x-0-0-----x-x-x-x-0-0-----| x 2 
A|-----------------------------x-x---------x-x-x-x---------| 
E|---------------------------------------------------------| 
#|  1  2  3  4  1  2  3  4  1  2     3 4  1    2     3  4 
 
 
VERSE 3 
 
e|--5--7--x-x--4----4--4--x-x-2--x-2--x-4----5--4--x-x-----| 
B|--5--5--x-x--5----5--5--x-x-3--x-3--x-5----5--5--x-x-----| 
G|--6--6--x-x--4----4--4--x-x-2--x-2--x-4----4--4--x-x-----| 
D|---------------------------------------------------------| 
A|---------------------------------------------------------| 
E|---------------------------------------------------------| 
#|  1     2      3     4      1    2    3       4 
 
e|--5--7--x-x--4----4--4--x-x-2--x-4--x-5----5--5--x-x-----| 
B|--5--5--x-x--5----5--5--x-x-3--x-5--x-5----5--5--x-x-----| 
G|--6--6--x-x--4----4--4--x-x-2--x-4--x-6----6--6--x-x-----| 
D|---------------------------------------------------------| 
A|---------------------------------------------------------| 
E|---------------------------------------------------------| 
#|  1     2      3     4      1    2    3       4 
 
(play twice) 
 
 
BRIDGE 
 
e|---------------------------------| 
B|---------------------------------| 
G|---------------------------------| 
D|------DRUMS--------ONLY----------| 
A|---------------------------------| 
E|---------------------------------| 
  "Oh let it rock,  let it roll..." 
 
There are vocals here for 8 measures, followed by a 4-measure  
drum solo. Then, it goes into the following: 
 
 
FIRST INTERLUDE 
 
e|---------------------------------------------------------| 
B|--2--3--2--3/5-------5----x-x-3--x-3--5--5--5--x-x-------| 
G|--2--2--2--2/4-------4----x-x-2--x-2--4--6--4--x-x-------| 
D|--2--4--2--4/6-------6----x-x-4--x-4--6--6--6--x-x-------| 
A|------------------0--------------------------------------| 
E|---------------------------------------------------------| 
#|  1     2       3    4        1    2  &3 &  4 
 
e|---------------------------------------------------------| 
B|--2--3--2--3/5-------5----x-x-3--x-3--2>-------x-x-------| 
G|--2--2--2--2/4-------4----x-x-2--x-2--2>-------x-x-------| 
D|--2--4--2--4/6-------6----x-x-4--x-4--2>-------x-x-------| 
A|------------------0--------------------------------------| 
E|---------------------------------------------------------| 
#|  1     2       3    4        1    2  &  3  4 
 
 
CHORUS 
 
e|--5--7--x-x--4----4--4--x-x-2--x-2--x-4----5--4--x-x-----| 
B|--5--5--x-x--5----5--5--x-x-3--x-3--x-5----5--5--x-x-----| 
G|--6--6--x-x--4----4--4--x-x-2--x-2--x-4----4--4--x-x-----| 
D|---------------------------------------------------------| x 3 
A|---------------------------------------------------------| 
E|---------------------------------------------------------| 
#|  1     2      3     4      1    2    3       4 
 
e|--5--7--x-x--4----4--4--x-x-2--x-4--x-5>-----------------| 
B|--5--5--x-x--5----5--5--x-x-3--x-5--x-5>-----------------| 
G|--6--6--x-x--4----4--4--x-x-2--x-4--x-6>-----------------| 
D|---------------------------------------------------------| x 1 
A|---------------------------------------------------------| 
E|---------------------------------------------------------| 
#|  1     2      3     4      1    2    3       4 
 
 
OUTRO 
 
e|---------------------------------------------| 
B|--5----5---5---5------3-------5---5----------| 
G|--6----6---4------4---2-------4------4-------| 
D|--7----7---6----------4-------6--------------| 
A|-----------------------------------------0---| 
E|---------------------------------------------| 
#|  1      2   3    4   1   2   3      4 
 
e|---------------------------------------------| 
B|--5----5---5---5---------3---3--2>-----------| 
G|--6----6---4------4------2---2--2>-----------| 
D|--7----7---6-------------4---4--2>-----------| 
A|---------------------0----------0>-----------| 
E|---------------------------------------------| 
    1      2   3    4  1     2       3     4 
 
Into: 
 
e|--5-----5--5--4--4--5--4--2------------------------------| 
B|--5-----5--5--5--5--5--5--3------------------------------| 
G|--6-----6--6--4--4--6--4--2--x-x---------x-x-x-x---------| 
D|--7-----7--7--6--6--7--6--4--x-x-0-0-----x-x-x-x-0-0-----| 
A|-----------------------------x-x---------x-x-x-x---------| x 4 
E|---------------------------------------------------------| 
#|  1  2  3  4  1  2  3  4  1  2     3 4  1    2     3  4 
 
Fade out. 
 

		  

auto scroll beats size up size down change color hide chords drawings
tab show chords e-chords YouTube Clip e-chords hide all tabs e-chords go to top tab

share