Celldweller

The Wings Of Icarus

Celldweller

tabs

by  HUGO_RODRIGUES

save to print version add songbook text version e-mail correct tuner
chordsukulelecavacokeyboardtabbassdrumsharmonicaflute Guitar Pro
close

there isn't a video lesson for this song

chords

The Wings Of Icarus

	  		

Intro: 

----------------------------------------------------------------------| 
----------------------------------------------------------------------| 
----------------------------------------------------------------------| 
--2-2-2-2--2-2-2--------------------2-2-2-2--2-2-2--------------------| 
--2-2-2-2--2-2-2--------------------2-2-2-2--2-2-2--------------------| 
--2-2-2-2--2-2-2--------------------2-2-2-2--2-2-2--------------------| 

----------------------------------------------------------------------| 
----------------------------------------------------------------------| 
--------------------9-9-9-----------------------------9-9-9-----------| 
--2-2-2-2--2-2-2--------------------2-2-2-2--2-2-2--------------------| 
--2-2-2-2--2-2-2--------------------2-2-2-2--2-2-2--------------------| 
--2-2-2-2--2-2-2--------------------2-2-2-2--2-2-2--------------------| 

----------------------------------------------------------------------| 
----------------------------------------------------------------------| 
--------------------9-9-9---------------------------------------------| 
--2-2-2-2--2-2-2--------------------2-2-2-2--2-2-2--------------------| 
--2-2-2-2--2-2-2--------------------2-2-2-2--2-2-2--------------------| 
--2-2-2-2--2-2-2--------------------2-2-2-2--2-2-2--------------------| 

Pre Chorus : 

---------------------------------------------------------------------| X2 
---------------------------------------------------------------------| 
--------------5-5-5-5-5----------------------------------------------| 
-2-2-2-2-2-2--5-5-5-5-5--7-7-7-7-7--5-5-5-5-5------------------------| 
-2-2-2-2-2-2--3-3-3-3-3--7-7-7-7-7--5-5-5-5-5------------------------| 
-2-2-2-2-2-2-------------7-7-7-7-7--5-5-5-5-5------------------------| 

Chorus : 

----------------------------------------------------------------------| X3 
----------------------------------------------------------------------| 
----------------------------------------------------------------------| 
--10-10-10-10-10-10-10--7-7-7-7-7-7-7-7--2-2-2-2-2-2-2--5-5-5-5-5-5---| 
--10-10-10-10-10-10-10--7-7-7-7-7-7-7-7--2-2-2-2-2-2-2--5-5-5-5-5-5---| 
--10-10-10-10-10-10-10--7-7-7-7-7-7-7-7--2-2-2-2-2-2-2--5-5-5-5-5-5---| 

------------------------------------------| 
------------------------------------------| 
------------------------------------------| 
--10-10-10-10-10-10-10--7-7-7-7-7-7-7-7---| 
--10-10-10-10-10-10-10--7-7-7-7-7-7-7-7---| 
--10-10-10-10-10-10-10--7-7-7-7-7-7-7-7---| 

Verse : 

--------------------------------------------------------------------------------------| 
--------------------------------------------------------------------------------------| 
--------------------------------------------3-3-3--3-3-3--3-3-3--2-2-2--2-2-2--2-2-2--| 
--2-2-2--2-2-2--2-2-2--5-5-5--5-5-5--5-5-5--3-3-3--3-3-3--3-3-3--2-2-2--2-2-2--2-2-2--| 
--2-2-2--2-2-2--2-2-2--5-5-5--5-5-5--5-5-5--5-5-5--5-5-5--5-5-5--4-4-4--4-4-4--4-4-4--| 
--2-2-2--2-2-2--2-2-2--5-5-5--5-5-5--5-5-5--------------------------------------------| 

---------------------------------------------------------------------------------| 
---------------------------------------------------------------------------------| 
--------------------------------------------3-3-3-3-3-3-3-3-3-3-3-3-3-2-2-2-2-2--| 
--2-2-2--2-2-2--2-2-2--5-5-5--5-5-5--5-5-5--3-3-3-3-3-3-3-3-3-3-3-3-3-2-2-2-2-2--| 
--2-2-2--2-2-2--2-2-2--5-5-5--5-5-5--5-5-5--5-5-5-5-5-5-5-5-5-5-5-5-5-4-4-4-4-4--| 
--2-2-2--2-2-2--2-2-2--5-5-5--5-5-5--5-5-5---------------------------------------| 

Chorus : 

----------------------------------------------------------------------| X5 
----------------------------------------------------------------------| 
----------------------------------------------------------------------| 
--10-10-10-10-10-10-10--7-7-7-7-7-7-7-7--2-2-2-2-2-2-2--5-5-5-5-5-5---| 
--10-10-10-10-10-10-10--7-7-7-7-7-7-7-7--2-2-2-2-2-2-2--5-5-5-5-5-5---| 
--10-10-10-10-10-10-10--7-7-7-7-7-7-7-7--2-2-2-2-2-2-2--5-5-5-5-5-5---| 

Final : 

----------------------------------------------------------------------| 
----------------------------------------------------------------------| 
----------------------------------------------------------------------| 
--10-10-10-10-10-10-10--7-7-7-7-7-7-7-7--0-0-0-0-0-0-0------1-1-1-1-1-| 
--10-10-10-10-10-10-10--7-7-7-7-7-7-7-7--0-0-0-0-0-0-0------1-1-1-1-1-| 
--10-10-10-10-10-10-10--7-7-7-7-7-7-7-7--0-0-0-0-0-0-0------1-1-1-1-1-| 

----------------------------------------------------------------------| 
----------------------------------------------------------------------| 
--------------------9-9-9-----------------------------9-9-9-----------| 
--2-2-2-2--2-2-2--------------------2-2-2-2--2-2-2--------------------| 
--2-2-2-2--2-2-2--------------------2-2-2-2--2-2-2--------------------| 
--2-2-2-2--2-2-2--------------------2-2-2-2--2-2-2--------------------| 

----------------------------------------------------------------------| 
----------------------------------------------------------------------| 
--------------------9-9-9---------------------------------------------| 
--2-2-2-2--2-2-2--------------------2-2-2-2--2-2-2--------------------| 
--2-2-2-2--2-2-2--------------------2-2-2-2--2-2-2--------------------| 
--2-2-2-2--2-2-2--------------------2-2-2-2--2-2-2--------------------| 
		  

See also:

tabs Peaches - Talk To Me tabs The Knife - Still Light tabs Kaskade - All That You Give tabs No Mercy - Where Do You Go tabs Buckethead - Electric Sea tabs Fedde Le Grand - Put Your Hands Up 4 Detroit
e-chords

Other versions:

tabs Celldweller - The Wings Of Icarus
auto scroll beats size up size down change color hide chords drawings
tab show chords e-chords YouTube Clip e-chords hide all tabs e-chords go to top tab

share