Católicas

home > Católicas

O Senhor é Rei Tab

Católicas

Difficulty: BeginnerBeginner

by Strato

tuner correct add songbook print version text version save to e-mail
chordsukulelecavacokeyboardtabbassdrumsharmonicsflute Guitar Pro
chords

O Senhor é Rei

  		E|------------------------------- 
A|------------------------------- 
D|--2-2-2-4-2--5-5-5----------5-----  
G|---------------------------2-4-2---4-2- 
B|------------------------------- 
e|------------------------------- 
Essa parte é: 
  "O senhor, o senhor é meu pastor e rei" 
 
E|------------------------------------------------- 
A|------------------------------------------------- 
D|--2-2-2-4-5-4-2--5-5-5-------5--------------5---- 
G|-----------------------2-4-2----2-2-4-5-4-2---4-2 
B|------------------------------------------------- 
e|------------------------------------------------- 
E essa é: 
  "O senhor está no céu,o senhor está no mar, 
   na extensão do infinito" 
 
Essa é pra quem prefere mais peso: 
(é um pouco difícil mas da certo) 
 
E|-0-0-0-2-0--3-3-3-5-7-5-3-7-5------------ 
A|-2-2-2-4-2--5-5-5-7-9-7-5-9-7------------ 
D|----------------------------------------- 
G|----------------------------------------- 
B|----------------------------------------- 
e|----------------------------------------- 
 
E|-0-0-0-2-3-2-0--3-3-3-5-7-5-3--5-5-7--8-7-5-3-7-5 
A|-2-2-2-4-5-4-2--5-5-5-7-9-7-5--7-7-9-10-9-7-5-9-7 
D|------------------------------------------------- 
G|------------------------------------------------- 
B|------------------------------------------------- 
e|------------------------------------------------- 

	  

Search Paypal
auto scroll beats size up size down change color hide chords drawings
tab show chords e-chords YouTube Clip e-chords hide all tabs e-chords go to top tab