Banda Bom Pastor

home > Banda Bom Pastor

A vitoria Tab

Banda Bom Pastor

Difficulty: BeginnerBeginner

by reynalty

tuner correct add songbook print version text version save to e-mail
chordsukulelecavacokeyboardtabbassdrumsharmonicsflute Guitar Pro
chords

A vitoria

(Autores: Marcos Castro, Cristiano Melo)

  		A vitória  
Bom Pastor 


E  ------------------------------------------------------------------15-13-12-13----------- 
B  -15b-15-13-15-13-12-13-12-10-12-------12------------15b-15-13-------------------13/15--- 
G  ------------------------ --------12--------10-12---------------------------------------- 
D  ---------------------------------------------------------------------------------------- 
A  ---------------------------------------------------------------------------------------- 
E  ---------------------------------------------------------------------------------------- 

No final repete  todo o solo de cima  a caba com este desfecho : 

E  ------------------------------------ 
B  ------------------------------------ 
G  -10-9-----------9------------------- 
D  --------10-12------10--------------- 
A  ------------------------12---------- 
E  ------------------------------------ 
	  

Search Paypal
auto scroll beats size up size down change color hide chords drawings
tab show chords e-chords YouTube Clip e-chords hide all tabs e-chords go to top tab