Rosa de Saron

home > Rosa de Saron

Do alto da pedra Tab

Rosa de Saron

Difficulty: BeginnerBeginner

by K%2EI%2EN%2EH%2EO

tuner correct add songbook print version text version save to e-mail
chordsukulelecavacokeyboardtabbassdrumsharmonicsflute Guitar Pro
chords

Do alto da pedra

  		SOLO APÓS O 2º Refrão 
 
E|-----------------------------------------------------14--------------| 
B|-19~--19~--17--19--------------------------14----14-------17---16----| 
G|-------------------16~/----------13---16-----------------------------| 
D|------------------------14/16----------------------------------------| 
A|---------------------------------------------------------------------| 
E|---------------------------------------------------------------------| 
 
E|--------------------------19-----------------------------19----------| 
B|-17--16------------------------17---16---17------16--17------17---16-| 
G|-----------18-----16/------------------------------------------------| 
D|---------------------------------------------------------------------| 
A|---------------------------------------------------------------------| 
E|---------------------------------------------------------------------| 
 
E|------------------19-----------------------------11~--11~--11~--11~--| 
B|-17--16--17--16--------17--16--17--16------------14---14---14---14---| 
G|---------------------------------------16--18------------------------| 
D|---------------------------------------------------------------------| 
A|---------------------------------------------------------------------| 
E|---------------------------------------------------------------------| 
 
E|-11~-—11~-------------14~---14---12----------------------------------| 
B|-14---14----12---14-------------------16---17---16---14---16---17----| 
G|---------------------------------------------------------------------| 
D|---------------------------------------------------------------------| 
A|---------------------------------------------------------------------| 
E|---------------------------------------------------------------------| 
 
E|---------------------------------------------------------------------| 
B|-16---14------------16/----17---19---17---16----17/------------------| 
G|-----------16-------------------------------------------11/----13--14| 
D|----------------18/--------------------------------------------------| 
A|---------------------------------------------------------------------| 
E|---------------------------------------------------------------------| 
 
E|---------------------------------------------------------------------| 
B|---16----16~----14---16----------------------------------------------| 
G|---------------------------------------------------------------------| 
D|---------------------------------------------------------------------| 
A|---------------------------------------------------------------------| 
E|---------------------------------------------------------------------|
	  

Search Paypal
auto scroll beats size up size down change color hide chords drawings
tab show chords e-chords YouTube Clip e-chords hide all tabs e-chords go to top tab